Cifra Club

Aprenda

The Ghost Of Tom Joad

Rage Against The Machine

Cifra: Principal (violão e guitarra)
tom: C
Afinação:   6ª em Ré

e:---------------------
B:---------------------
G:---------------------  Efeito usado pelo Tom Morello dando ideia de helice de   
D:---------------------  helicoptero
A:---------------------
D:---------------------

refrao: (inicia a musica)

e:------------------------------------------
B:------------------------------------------
G:------------------------------------------
D:------------------------------------------
A:-----5--3--0-------------3---------3------
D:--0-----------5--3--0-------5--0----------


Riff1
e:----------------------------
B:----------------------------   
G:----------------------------   
D:--0-------------------0-----   
A:--0-----3-------3-----0-----    
D:--0--------5--0-------0-----

Riff2
e:----8/10----------8/108------
B:------------------------------
G:------------------------------
D:--0---------------------0-----
A:--0------3--------------0-----
D:--0---------5---0-------0-----

Riff3
Guitarra1
e:----------------------------
B:----------------------------   
G:----------------------------   
D:--0-------------------0-----   
A:--0-----3-------3-----0-----    
D:--0--------5--0-------0-----

Guitarra2
E:---------------------------------------|
B:---------------------------------------|
G:---------------------------------------|
D:--12-10-12-10-12-10----------10-12-10--|
A:--------------------12-10-12-----------|
D:---------------------------------------|

Riff4(Delay)
e:----------------------------
B:----------------------------   
G:----------------------------   
D:-10x------------------10x---   
A:-10x----3-------3-----10x---    
D:-10x-------5--0-------10x---
Composição de Bruce Springsteen
4.593 exibições
    • ½ Tom
    • A
    • Bb
    • B
    • C
    • Db
    • D
    • Eb
    • E
    • F
    • F#
    • G
    • Ab
  • Adicionar à lista

    0 comentários

    Ver todos os comentários

    Conseguiu tocar?

    1 Tocaram 0 Ainda não

    Grave um vídeo tocando The Ghost Of Tom Joad e nos envie!

    00:00 / 00:00
    Outros vídeos desta música
    Repetir Qualidade Automático
    Outros vídeos desta música
    00:00 / 00:00
    Automático

    Cifra Club Pro

    Aproveite o Cifra Club com benefícios exclusivos e sem anúncios
    Cifra Club Pro
    Aproveite o Cifra Club com benefícios exclusivos e sem anúncios
    OK