Cifra Club

All's Quiet On The Eastern Front

Ramones

Tab de baixo: Principal
Intro/refrão/ponte 
G|-----------------------------------------------------|
D|-----------------------------------------------------|
A|-------------4444-------------6666-------------------|
E|-4-444-444-4------4-444-444-4------------------------|

G|-----------------------------------------------------|
D|-----------------------------------------------------|
A|-------------4444-------------66666666666666---------|
E|-4-444-444-4------4-444-444-4------------------------|


Verso 
G|--------------------------------------------------------|
D|--------------------------------------------------------|
A|---------------4444444444444---------------4444444444444|
E|-4444444444444---------------4444444444444--------------|


Ultimo refrão
G|-----------------------------------------------------|
D|-----------------------------------------------------|
A|-------------6666------------------------------------|
E|-6-666-666-6------6-666-666-111111-------------------|

Final
G|-----------------------------------------------------|
D|-----------------------------------------------------| 
A|-----------------------------------------------------| 
E|-6-666-666-6-111111--6-666-666-6-111111--------------|
exibições 157
Composição: Dee Dee Ramone Colaboração e revisão:
  • Pedro Lara

0 comentários

mostrar mais comentários

Conseguiu tocar?

0 tocaram 0 ainda não

Grave um vídeo tocando All's Quiet On The Eastern Front e mande pra gente!

00:00 / 00:00
outros vídeos desta música
repetir qualidade Automático
Outros vídeos desta música
00:00 / 00:00
Automático
OK