Cifra Club

Aprenda

Makin' Monsters for My Friends

Ramones

Tab de baixo: Principal
Intro
G|----------------|
D|----------------|
A|----------------|   4x
E|-6-66-66-33-3-3-|

Verso 1
G|-----------------|
D|--------------33-|
A|-3-33333333333---|   7x
E|-----------------|

Refrão
G|---------------------------------|
D|---------------33-3-3---1-1-5-5--|
A|-3-333333333333------3-3-------3-|    2x
E|---------------------------------|

(Intro) 2x
(Verso 1) 7x
(Refrão) 2x
(Intro) 2x

Verso 2
G|------------|
D|---------3--|  4x
A|-3----1-3-3-|
E|------------|

(Verso 1) 4x
(Refrão) 4x
(Intro) 4x
Composição de Daniel Rey / Dee Dee Ramone
Colaboração e revisão:
  • Igor Quaresma
103 exibições

0 comentários

Mostrar mais comentários

Conseguiu tocar?

0 Tocaram 0 Ainda não

Grave um vídeo tocando Makin' Monsters for My Friends e mande pra gente!

00:00 / 00:00
outros vídeos desta música
repetir qualidade Automático
Outros vídeos desta música
00:00 / 00:00
Automático

Cifra Club Pro

Aproveite o Cifra Club com benefícios exclusivos e sem anúncios
7 dias grátis
Cifra Club Pro
Aproveite o Cifra Club com benefícios exclusivos e sem anúncios
7 dias grátis
OK