Cifra Club

Aprenda

Tropical London

Rancid

Cifra: Principal (violão e guitarra)
tom: B
INTRO:

E|---------------------------------------------------|
B|------------4-----6--------------------------------|
G|------------4-----6--------------------------------| 2x
D|----------6-----4------2---------------------------|
A|----------6-----4------2---------------------------|
E|--7-6-4----------------0---12-12-12-12-12-11-9-7-7-|

REFRAO:
     B5              G#5              E5              B5
E|---------|    |----------|    |----------|     |----------|        
B|---------|    |----------|    |----------|     |----------|        
G|---------| 7x |----------|7x  |----------|7x   |----------|7x       2X
D|----9----|    |-----6----|    |------9---|     |----9-----|
A|----9----|    |-----6----|    |--7-------|     |----9-----|
E|--7------|    |---4------|    |----------|     |--7-------|

VERSO:   
                                             B5       F#5
E|-11---------|      |-7--------|    |   |  |--------|--------|
B|-X--12------|      |-X----9---|    |   |  |--------|--------|
G|-X-----13---|2x    |-X----9---|2x  |   |  |--------|--------|
D|-X-----13---|      |-X----9---|    |3x |  |-----9--|----4---|
A|-11---------|      |-X--------|    |   |  |-----9--|----4---|
E|------------|      |-7--------|    |   |  |--7-----|--2-----| 


REFRAo 1x
VERSO 1x
REFRAO 1x


SOLO 1:
|-----------------------------------------------------------|
|-----------------------------------------------------------|
|-----------------------------------------------------------|
|-----------------8888-55-------8888-55---------------------|
|-------5-8888-88---------8888----------8888-55-------------|
|-6666-8----------------------------------------888886656---|

REFRAO 1x

SOLO 2:

|---------------------------------|
|---------------------------------|
|---------------------------------|
|---------------------------------|
|-/5555-5\333-3\111---1-3-5--3-1--|
|-------------------3-------------|

|-1-3131-----------------|
|-3-3333-1-3-------------|
|-0-0000-----0-3-33-0-3--|
|------------------------|
|------------------------|
|------------------------|

REFRAO 1x


FIM
Composição de Lars Frederiksen / Tim Armstrong
Colaboração e revisão:
  • Rodrigo Trevisan
1.897 exibições
    • ½ Tom
    • A
    • Bb
    • B
    • C
    • Db
    • D
    • Eb
    • E
    • F
    • F#
    • G
    • Ab
  • Adicionar à lista

    0 comentários

    Ver todos os comentários

    Conseguiu tocar?

    0 Tocaram 0 Ainda não

    Grave um vídeo tocando Tropical London e nos envie!

    00:00 / 00:00
    Outros vídeos desta música
    Repetir Qualidade Automático
    Outros vídeos desta música
    00:00 / 00:00
    Automático

    Cifra Club Pro

    Aproveite o Cifra Club com benefícios exclusivos e sem anúncios
    Cifra Club Pro
    Aproveite o Cifra Club com benefícios exclusivos e sem anúncios
    OK