Cifra Club

Crocodila

Ratos de Porão

Cifra: Principal (violão e guitarra)
tom: G
Legenda:
--------
h = Hammer On
p = Pull Off
/ = Slide
~ = Vibrato
x = Tremolo Picking (Efeito)
o = Uma palhetada só
+ = Vários pull offs rápidos
() = Harmonico Artificial na Casa 1! (Mto Difícil, mas tem!)
   
Intro/Refrão:
                             6x
e|------------------------------|-Outro:-------|
B|------------------------------|--------------|
G|-------3----------------------|-----------6~-|
D|-5-5-5-3-3--45-5-5-5-45-5-5-5-|-5---3-5-3-6~-|
A|-5-5-5-1-3--45-5-5-5-45-5-5-5-|-5---1-5-1-4~-|
E|-3-3-3---1--23-3-3-3-23-3-3-3-|-3-----3------|
              Não é Slide na ver-
              dade. É assim mesmo!

Versos:

e|-----------------------------|
B|-----------------------------|
G|------3------3-666666-999999-|
D|-5-5--3-5-5--3-666666-999999-|
A|-5-5--1-5-5--1-444444-777777-|
E|-3-3----3-3------------------|
   * *  * * *  * <- Palm Muted na Terceira Linha dos versos

Solo:

    xxxxxxxxxx
e|------------------|----------------------|------------------------|
B|------------------|----------------------|------------------------|
G|-5b-b-bbbb--5-r-5-|-3~~-3p0--5-()--------|-5p4p3------------------|
D|-5bb-b-bb--5----r-|--------5-5---0h5-5/0-|------5p4p3-------55555-|
A|------------------|----------------------|-----------5p3----xxxxx-|
E|------------------|----------------------|--------------0h3333333-|
                                              Rápido!!!
e|------------------|   O Solo da "Crocodila" é baseado nesse solo
B|------------------|   improvisado aí em cima! Pode estar faltan-
G|------------------|   do notas ou sobrando, mas tem essa base!!!
D|-5p0-5~~~~~-0---5-|   Tente descobrir! Obs: Se vc tem um Zoom 505II
A|------------0---5-|   tente um tremolo 7 para o começo do solo
E|------------5p3-3-|   e um Chorus 3 para o resto!
              ooooo
Leonardo Almeida Iglesias
Compositor não encontrado.
8.740 exibições
    • ½ Tom
    • A
    • Bb
    • B
    • C
    • Db
    • D
    • Eb
    • E
    • F
    • F#
    • G
    • Ab
  • Adicionar à lista

    0 comentários

    Ver todos os comentários

    Conseguiu tocar?

    1 Tocaram 0 Ainda não

    Grave um vídeo tocando Crocodila e nos envie!

    00:00 / 00:00
    Outros vídeos desta música
    Repetir Qualidade Automático
    Outros vídeos desta música
    00:00 / 00:00
    Automático

    Cifra Club Pro

    Aproveite o Cifra Club com benefícios exclusivos e sem anúncios
    Cifra Club Pro
    Aproveite o Cifra Club com benefícios exclusivos e sem anúncios
    OK