Cifra Club

Aprenda

Pensando Em Você

Restart

Cifra: Principal (violão e guitarra)
tom: A
E|---------12------------10----------8--------6---------4---------2--------0--|
B|------10-------------8-----------6--------4----------2--------0--------3----|
G|----9--------------8-----------6--------4----------2--------0--------3------|   (2x)
D|----------------------------------------------------------------------------|
A|-12------------10----------8---------6----------4--------2--------3---------|
E|----------------------------------------------------------------------------|

  Bm6
Tudo tem começo

Tudo tem um fim
    G#               D#m7+
E o meu começo é roubar
            Am7(9)
Você pra mim

  E4
Acabo de pensar
        F#m7
Como é bom
            D
Estar contigo
               A
Pensando em você
   E4               F#m7  D   A
Vivendo o entardecer
E|----------------------------------------|
B|---2--4---2---4----6--------------------|
G|--------------------------6-5-4---------|
D|----------------------------------------|
A|----------------------------------------|
E|----------------------------------------|

                  E4
Como é bom estar com você
         F#m7
Pensar em tudo
         D             A
Que eu tenho pra viver
          E4            F#m7   D  A
Não tem como esquecer

     E4
Não tem como te esquecer
 F#m7
Acabo tudo
       D
Começo a viver
         A
Não sei como negar
         E4           F#m7  D  A
Minha vida com você
E|--2------------------2---------------------------3----------------------|
B|--2------------------3---------------------------3----------------------|
G|--2------------------2---------------------------0----------------------|
D|--4------------------x---------------------------0----------------------|
A|--4------------------x---------------------------2----------------------|
E|--x---3232--673------x----34343434343--673-------3--34343434-----6731-0-|

Composição de Matheus Gasco
Colaboração e revisão:
  • matheus pires
10.505 exibições
    • ½ Tom
    • A
    • Bb
    • B
    • C
    • Db
    • D
    • Eb
    • E
    • F
    • F#
    • G
    • Ab
  • Adicionar à lista

    0 comentários

    Ver todos os comentários

    Conseguiu tocar?

    1 Tocaram 0 Ainda não

    Grave um vídeo tocando Pensando Em Você e nos envie!

    00:00 / 00:00
    outros vídeos desta música
    repetir qualidade Automático
    Outros vídeos desta música
    00:00 / 00:00
    Automático

    Cifra Club Pro

    Aproveite o Cifra Club com benefícios exclusivos e sem anúncios
    Cifra Club Pro
    Aproveite o Cifra Club com benefícios exclusivos e sem anúncios
    OK