Cifra Club

Sexed Up

Robbie Williams

Tab de baixo: Principal
Bass enters at: 

   Pre Chorus 1: 0.38 (Why don't we talk about it) 
G: ----------------------------|
D: ----------------------------|
A: ----------------------------|
E: -1---3---0---5--5-7-8-10--3-| 

   Chorus 1: 0.57 (Why don't we brake up) 
G: ----------------------------|
D: ----------------------------|
A: -3--------3--------3--------|
E: ---0-1-3----0-1-3----0-1-13-| 

   Post Chorus: 1.19 
G: ------------------|
D: ------------------|
A: -3--------3-------|
E: ---0-1-3----0-1-3-|

   Verse 2: 1.30 (You said we're fatally flawed)
G: -------------------------|
D: -------------------------|
A: -3------------3----------|
E: ----1--5--0------1--5--3-|

   Pre Chorus 2: 1.56 (Why don't we talk about it)
G: ----------------------------|
D: ----------------------------|
A: ----------------------------|
E: -1---3---0---5--5-7-8-10--3-| 

   Chorus 2: 2.15 (Why don't we brake up) 
G: ----------------------------|
D: ----------------------------|
A: -3--------3--------3--------|
E: ---0-1-3----0-1-3----0-1-13-| 

   Bridge: 2.37 (Screw you I didn't like your taste)
G: ------------------------------------------------|---|
D: ------------------------------------------------|---|
A: -3----------------------------------------------|-3-|
E: --------1---3---0---5--3-1---3---0---5---6--5-4-|---|

   Chorus 3: 3.14 (Why don't we brake up) 
G: ---------------------------|
D: ---------------------------|
A: -3--------3--------3-------|
E: ---0-1-3----0-1-3----0-1-4-| 

   Ending: 3.36 (I hope you blow away)
G: -------------------|
D: -------------------|
A: -3---3---3---3---3-|
E: ---3---3---3---3---|
Composição de Guy Chambers / Robbie Williams
Colaboração e revisão:
  • Élison Duarte
736 exibições

0 comentários

Ver todos os comentários

Conseguiu tocar?

0 Tocaram 0 Ainda não

Grave um vídeo tocando Sexed Up e nos envie!

00:00 / 00:00
Outros vídeos desta música
Repetir Qualidade Automático
Outros vídeos desta música
00:00 / 00:00
Automático

Cifra Club Pro

Aproveite o Cifra Club com benefícios exclusivos e sem anúncios
Cifra Club Pro
Aproveite o Cifra Club com benefícios exclusivos e sem anúncios
OK