Cifra Club

Aprenda

Ooh La La Intro

Rod Stewart

Cifra: Principal (violão e guitarra)
tom: G
INTRO
(like I had to label it, it says intro tabs)
e|-----------------------------------|
B|-----------------------------------|
G|-2--2--2h4-2-----------0-0-0-------|
D|-------------4-0-2--2--------4-2---|
A|-----------------------------------|
E|-----------------------------------|

this is also the solo later on.

e|-----------------------------------------|
B|-----------------------------------------|
G|-2--2-----2-4-2--------------------------|
D|-------4---------4-2-0--2-2---5-5-4-2-0--|
A|-----------------------------------------|
E|-----------------------------------------|
Great song.
Compositor não encontrado.
Colaboração e revisão:
  • Ricardo Pimentel
1.002 exibições
    • ½ Tom
    • A
    • Bb
    • B
    • C
    • Db
    • D
    • Eb
    • E
    • F
    • F#
    • G
    • Ab
  • Adicionar à lista

    0 comentários

    Ver todos os comentários

    Conseguiu tocar?

    0 Tocaram 0 Ainda não

    Grave um vídeo tocando Ooh La La Intro e nos envie!

    00:00 / 00:00
    Outros vídeos desta música
    Repetir Qualidade Automático
    Outros vídeos desta música
    00:00 / 00:00
    Automático

    Cifra Club Pro

    Aproveite o Cifra Club com benefícios exclusivos e sem anúncios
    Cifra Club Pro
    Aproveite o Cifra Club com benefícios exclusivos e sem anúncios
    OK