Notificações Amigos pendentes

      Rodox

      De Uma Só Vez

      8.604 exibições
      by |LOMBRA|
      
      Eu fiz tudo bem Detalhado, pq eu axo que quem sabe toca bem, naum precisa de TAB, isso
       eh mais pra quem ta aprendendo, e quando eu comecei, eu tb preferia as bem 
      detalhadas! Escutem a música Uma VEZ, que 6 jah vaum pega o ritmo... otra, logico q vc
       pode faze umas caida, de uma nota pra outra, mas isso vai de cada um pq, a musica eh 
      muito rapida, e se eu colocasse minhas caida ai, muita gente naum ia consigui
      acompanha as caidinha, tp, eu naum percebo durante a musica a caida do baxo, mas como 
      caida eh algo pessoal, eu tenho as minhas
      e eh bem melhor q vc monte suas proprias, pq assim vc consegue pega BEM MAIS rapido as 
      manha do baxo, bem eh isso, eu fiz do modo mais simples
      e correto o possivel e espero que gostem, qualquer coisa mandem-me um E-mAIl THnKS...
       RODOX na veia, eh a palavra do SENHOR do jeito mais Rock o possivel!! isso eh SOM!
      
      
      INTRO (A# G D# baixo Entra após o GO)
      
      G|-----------------------------------------------------------------------|
      D|-----------------------------------------------------------------------|
      A|---------55-----------------55-666666---------55---------666666666666--|
      E|--666666----333333---666666------------666666----333333----------------|
      
      Riff #1 ( De uma Soh vez...)
      
      G|------------------------------------------------------------------------------------------------|
      D|------------------------------------------------------------------------------------------------|
      A|-------5555-------6666--------------666666666--------3333--------6666-------------666666666-----|
      E|-6666-------3333--------3333--1111------------6666--------3333--------3333-1111-----------------|
      
      
      Riff #2 (Vivendo Num Estreito....)
      
      G|-------------------------------------------------------------------|
      D|-------------------------------------------------------------------|
      A|--------333333--666666--------------------333333--666666-----------|
      E|-11111------------------1111111---111111------------------111111---|
      
      Riff #1 ( No Meu Sonho eu Vi...)
      
      G|------------------------------------------------------------------------------------------------|
      D|------------------------------------------------------------------------------------------------|
      A|-------5555-------6666--------------666666666--------3333--------6666-------------666666666-----|
      E|-6666-------3333--------3333--1111------------6666--------3333--------3333-1111-----------------|
      
      
      
      Riff #2 (Se eu estiver cercado...)
      
      G|-------------------------------------------------------------------|
      D|-------------------------------------------------------------------|
      A|--------333333--666666--------------------333333--666666-----------|
      E|-11111------------------1111111---111111------------------111111---|
      
      REFRÂO 2X ( (1X eh no) Coragem vai em frente...., (2X eh no ) OLHAR bem diferente....)
      
      G|-------------------------------------------------------------------|
      D|-------------------------------------------------------------------|
      A|--------666666----------666666------------------666666-------------|
      E|-66666----------333333----------666666--333333----------6666666----|
      
      INTRO 
      
      G|-----------------------------------------------------------------------|
      D|-----------------------------------------------------------------------|
      A|---------55-----------------55-666666---------55---------666666666666--|
      E|--666666----333333---666666------------666666----333333----------------|
      
      
      SE ESCREVER COM #GIZ, -- A CHUVA AP#AGA OQUE É DE#FINITIVO COMO TA#TUAGEM
      
      G|------------------------------------------------------------------------------------|
      D|------------------------------------------------------------------------------------|
      A|---------------------------------#55555555555-------------------#666666666666-------|
      E|--------------#6666666666666666----------------#3333333333333-----------------------|
      
      SOLO (entra o solo da guitarra, o baixo pode acompanhar o solo da guitar q eh)
      
      G|------------------------------------------------------------------|
      D|------------------------------------------------------------------|
      A|-5-6-8-6-5-4-2---5-6-8-6-5-3-1---5-6-8-6/5-5-6-8-6/5-5-6-8-6/5-10-|
      E|------------------------------------------------------------------|
      
      ou entaum, pode fazer assim, eh mais facil, mais eu prefiro um solo, da DESTAKE! hehe, =)
      
      G|------------------------------------------------------------------------------------------|
      D|-------33333------------------33333-----------------3333------3333------3333-5555555555---|
      A|-55555-------4444-2222--55555-------3333-1111--5555------5555------5555-------------------|
      E|------------------------------------------------------------------------------------------|
      
      Riff #2 (Com grades ao redor...)
      
      G|-------------------------------------------------------------------|
      D|-------------------------------------------------------------------|
      A|--------333333--666666--------------------333333--666666-----------|
      E|-11111------------------1111111---111111------------------111111---|
      
      REFRÂO 2X ( (1X eh no) Coragem vai em frente...., (2X eh no ) OLHAR bem diferente....)
      
      G|-------------------------------------------------------------------|
      D|-------------------------------------------------------------------|
      A|--------666666----------666666------------------666666-------------|
      E|-66666----------333333----------666666--333333----------6666666----|
      
      INTRO 2X (aki, o baxo fika sozinhu na 1ª vez, isso eh bom, da destake e confiança pros baixista,
       o RODOX sabe dexa todos por igual na banda!=))
      
      G|-----------------------------------------------------------------------|
      D|-----------------------------------------------------------------------|
      A|---------55-----------------55-666666---------55---------666666666666--|
      E|--666666----333333---666666------------666666----333333----------------|
      
      
      DE UMA SOH VEZ EU F#IZ..... ALGO MU#DAR MINHA VIDA P#RA SER COMO EU SE#MPRE QUIS SER#....
      
      G|-----------------------------------------------------------------------------------------|
      D|-----------------------------------------------------------------------------------------|
      A|---------------------------------#5555555555555-------------------#666666666666----------|
      E|-----------------#6666666666666-------------------#3333333333333------------------#6~~---|
      
      
      Eh isso, espero que se virem cum isso, detalhei o Maximo, OS #, eh o momento exato de trocar
      a nota... meu deu um trabalhão pra monta tudo detalhado, mas eh q o BRASIL precisa de mais
      baxistas... hauhaua (q cara socialista!)
      Mais MILHÕES de BEIJÕES pra mInha carla LINDAA tXi GoStO DEMAISSSS MiNhA lINDAaAA!!
      Meu URsInhU di DUrmIR!
      Ai vai a letra pro pessoal q curte muito o RODOX! FUIII
      
      LETRA
      
      De uma só vez eu fiz algo mudar minha vida
      pra ser como eu sempre quis ser
      Eu reguei uma semente que vingou
      E eu simplesmente não quis mais olhar pra trás
      Reaprender como se faz
      O velho aiu, um novo homem nasceu
      Vivendo no estreito
      Decisão que vem do peito
      Eu abro e fecho e tiro a solução pro que não deu
      Sou o tiro e o alvo
      "Proibido" diz a placa e eu vou
      O inimigo é o medo que a situação te deu
      No meu sonho eu vi a gente no futuro
      confirmando o que era puro
      Enfim, tive o que ninguém deu pra mim
      Bom demais pra acreditar
      Eu acordei em outro lugar
      Tão diferente do lugar que eu vim
      Se eu estiver cercado, se o perigo vive ao lado
      Lembra bem que é pra matar o leão no coliseu
      No cinema mudo é um olhar pra eu dizer tudo
      Em um minuto posso te ensinar o que nunca aprendeu por bem ou por mal
      
      (Refrão)
                
      Coragem, vai em frente
      O dia chegou
      Se tem sede de paz
      descansa pois você já não é mais um sofredor
      Olhar bem diferente
      Tudo mudou
      Não saberia jamais
      Sonhar bem alto é quase um passo pra levantar vôo
      
      INTRO 
      Se escrever com giz
      A chuva apaga o que é definitivo como tatuagem                                       
      
      SOLO                          
      
      om grades ao redor, quanto mais gente, mais me senti só
      Essa corrente quem colocou em mim fui eu
       feito flor e isopor, todo passado é arquivo morto
      Um peso inútil na memória de quem viveu uma história igual
      
      [refrao]
      
      de uma só vez eu fiz algo mudar minha vida pra ser como eu sempre quis ser...
      
      
      
      
      
      
      Dedicado a toda a galerinha da ETT de Joinville, ao PF, linny_, bia, digo thais e 
      amigos e principalmente a minha gatinha que hj me faz muito feliz graças a deus, 
      espero que nOiS 2 dure o MAXIMo de tempo o possivel, Carla (BeTTy_), TXi GoStO MuITo 
      meSMo MiNhA LinDa... =**
      
      _______________________________________________________
      
        Composição: Rodolfo AbrantesColaboração e revisão:
        • lombra

        Comentários 0

        140 .
        140 cancelar

        conseguiu tocar?

        covers

        Grave um vídeo tocando De Uma Só Vez e mande pra gente!

        Ex.: http://www.youtube.com/watch?v=0IvSvIwGdwk
        ver covers de outras músicas »
        0:00 / 0:00

        Capítulos

          2 versões de violão dificuldade exibições contribuição e correção
          2 versões de guitarra dificuldade exibições contribuição e correção
          2 versões de cavaco dificuldade exibições contribuição e correção
          2 versões de teclado dificuldade exibições contribuição e correção
          1 versão de baixo exibições contribuição e correção
          play/pausefechar subir/descer velocidade
          6ª corda E5ª corda A4ª corda D3ª corda G2ª corda B1ª corda E
            acordes
            publicidade
            fechar
            ok