Cifra Club

Meu Universo É Você

Roupa Nova

Cifra: Principal
exibições 432.910
Tom: C
 C          G          Am    F
Mais que a luz das estrelas, ah
C
  Eu queria ser mais que um amigo
G
  Mas porque não me entende
F              G
  Quando fica deprimida
  C
Choro com você
E me conta suas aventuras
G
  Os seus casos antigos
           F            G
Eu fico calado, finjo que não ligo
  C
Pra não te perder
F                 G
  Se me olhar no rosto vai ver
Em            Am        G
  As tristes marcas do sorriso
 F     G   C          G          Am    F
Ba....by, mais que a luz das estrelas, ah
C         Am        G
  Meu universo é você
 F     G  C          G
Ba....by, ah! Se eu puder
        Am    F
Ter a chance, ah
         C           G
Eu juro todo o seu amor
     F  G  C  G
Merecer
       C
Tenho medo que talvez descubra
   G
E simplesmente me corte
F                 G
  Ou quem sabe a sorte, um sonho
  C
Traz você pra mim
Eu sei tudo sobre o seu passado
G
  E dos passos errados
     F             G
Um amor maior é o meu presente
   C
Futuro é com você
F                 G
  Se me olhar nos olhos vai ver
Em          Am
   Falar é pouco
           G
Pra quem quer mais
 F     G   C          G
Ba....by, mais que a luz
        Am    F
Das estrelas, ah
C         Am        G
  Meu universo é você
 F     G  C            G
Ba....by, ah! Se eu puder
        Am    F
Ter a chance, ah
         C           G
Eu juro todo o seu amor
     F  C  G  C  G
Merecer
F                 G
  Se me olhar no rosto vai ver
Em            Am        G
  As tristes marcas do sorriso
 F     G   C          G          Am    F
Ba....by, mais que a luz das estrelas, ah
C         Am        G
  Meu universo é você
 F     G  C            G
Ba....by, ah! Se eu puder
        Am    F
Ter a chance, ah
         C           G
Eu juro todo o seu amor
Am            F
  Com toda a força em mim
         C         G
Eu juro todo seu amor
     F  C
Merecer

[Solo]

E|---7-8-10---10---10----------------------------|
B|----------8----8----8--------------------------|
G|-----------------------------------------------|  
D|-----------------------------------------------|
A|-----------------------------------------------|
E|-----------------------------------------------|
                                    
E|----------------------------------3------------|
B|----8-10-11-13-11-10-----8ph10----3------------|
G|--7-------------------------------0------------|   
D|----------------------------------0------------|
A|----------------------------------2------------|
E|----------------------------------3------------|
Acordes para:

    0 comentários

      mostrar mais comentários

      Conseguiu tocar?

      19tocaram2ainda não

      Grave um vídeo tocando Meu Universo É Você e mande pra gente!

      00:00 / 00:00
      outros vídeos desta música
      repetirqualidadeautomática
      Outro vídeos desta música
        00:00 / 00:00
        automática
        OK