Cifra Club

Queen Of Rain

Roxette

Cifra: Principal (violão e guitarra)
tom: D
Intro: B5 G7+  A  Bm  G7+  A  Bm G7+  A  D  E9  G7+  A  Bm

E|----2-5--------------2-5------------------------2-5------------
B|---5---2-3-5--------5---2-3-5------------------5---2-3-5-------
G|------------4-2-4------------4-2/4/6/7-6--2-0-----------4-2-4--
D|-4~------------------------------------------------------------
A|---------------------------------------------------------------
E|-2~------------------------------------------------------------

E|--7-5------------5-------7-5-----------------
B|-----7-3-5-3--7-7-7-5-3-----7-3-5-3----------
G|------------2----------4------------4-2-4~~--
D|---------------------------------------------
A|-2-------------------------------------------
E|---------------------------------------------
          Bm
 In that big big house there are fifty doors
    G7+
 and one of them leads to your heart.
         Bm
 In the time of spring I passed your gate
      G7+
 and tried to make a start.

 F#m       Em          F#m               Bm
 All I knew  was the scent of sea and dew
 A                                          B
 but I've been in love before, how about you?

 G7+                         A
     There's a time for the good in life,
    D                E9
 a time to kill the pain in life,
 G7+                  A              Bm
     dream about the sun you queen of rain.

         Bm
 In that big old house there are fifty beds
      G7+
 and one of them leads to your soul.
         Bm
 It's a bed of fear, a bed of threats,
    G7+
 regrets and sheets so cold.
 F#m        Em   F#m                B9
 All I knew your eyes so velvet blue,
       A                              B
 I've been in love before, how about you?

 G7+                    A
 There's a time for the good in life...
 D                        E9
 It's time to place your bets in life,
G7+                  A             Bm
 dream about the sun you queen of rain.
 G7+   A           D       E9
 I've played the loser's game of life,
 G7+                  A             G7+
 dream about the sun you queen of rain.

Solo base: G7+  A   Bm   G7+  A   Bm   A/C#   D    E9    G7+    A

Solo:
E|---------------------2-5p2------------------------------2-5p2-
B|-3h5-5-3-5b\3--3-5-5b-----5/7\5-3-3h5-5-5-3-5b\3--3-5-5b------
G|---------------------------------4----------------------------
D|--------------------------------------------------------------
A|--------------------------------------------------------------
E|--------------------------------------------------------------

E|-------5------5/7-5-------------------------------
B|-3-5-5b-7~-3~------7-3-5-3------------------------
G|--------------------------4--2-4-4b\--------------
D|--------------------------------------------------
A|--------------------------------------------------
E|--------------------------------------------------

 F#m         Em      F#m                   B9
 Time went by as I wrote your name in the sky,
 A                    B
 fly fly away, bye bye.

  G7+                    A
 There's a time for the good in life...
 D                        E9
 It's time to place your bets in life,
G7+                  A             Bm
 dream about the sun you queen of rain.
 G7+   A           D       E9
 I've played the loser's game of life,
 G7+                  A             G7+
 dream about the sun you queen of rain.

Frase final:
E|----------------------------
B|------------10~-12~---------
G|----------------------------
D|--9~-11~-12~----------------
A|----------------------------
E|----------------------------

Final: Bm C#5 D5 A5 B9 (repete ate decair)
00:00 / 00:00
Outros vídeos desta música
Repetir
Outros vídeos desta música
Composição de Mats Persson / Per Gessle
Colaboração e revisão:
  • julian conceição
  • João Ribeiro
15.309 exibições
    • ½ Tom
    • A
    • Bb
    • B
    • C
    • Db
    • D
    • Eb
    • E
    • F
    • F#
    • G
    • Ab
  • Adicionar à lista

    0 comentários

    Ver todos os comentários

    Conseguiu tocar?

    3 Tocaram 0 Ainda não

    Grave um vídeo tocando Queen Of Rain e nos envie!

    Entre para oCifra Club PRO

    Tenha acesso a benefícios exclusivos no App e no Site

    • Chega de anúncios

    • Prioridade de compra em lançamentos

    • Mais recursos no app do Afinador

    • Atendimento Prioritário

    • Descontos nos produtos Cifra Club

    • Ajude a produzir mais conteúdo

    00:00 / 00:00

    Cifra Club Pro

    Aproveite o Cifra Club com benefícios exclusivos e sem anúncios
    Cifra Club Pro
    Aproveite o Cifra Club com benefícios exclusivos e sem anúncios
    OK