Cifra Club

Spirit Of Radio

Rush

Cifra: Principal (violão e guitarra)
Tom: D
e:--2-p0-----0--5-p0-----0--2-p0-----0--4p2p0-----0------------------|
B:--------3-----------3-----------3------------3---------------------|
G:-------------------------------------------------------------------|
D:-------------------------------------------------------------------|
A:-------------------------------------------------------------------|
E:-------------------------------------------------------------------|
 
e:-------------------------------------------------------------------|
B:-------------------------------------------------------------------|
G:-(9)---------------------------------------------------------------|
D:-(9)---------------------------------------------------------------|
A:-(7)---------------------------------------------------------------|
E:-(0)---------------------------------------------------------------|

Riff B (q = 180)
       (when played after riff H, decel. from q = 240 to q = 180)

     q  e  e  e  e  e  e
e:-------------------------------------------------------------------|
B:-------------------------------------------------------------------|
G:-------------------------------------------------------------------|
D:--/4--2--0-----0---------------------------------------------------|
A:------------4-----4--2---------------------------------------------|
E:-------------------------------------------------------------------|

Riff C1 (q = 180, q = 148 when played between and after I riffs)

    q  q  q  e  e+     q   q  e  e  e  e+
e:-----------------|-------------------------------------------------|
B:-----------------|-------------------------------------------------|
G:--------------2--|--(2)--------------------------------------------|
D:--2-----------2--|--(2)-----------2--2-----------------------------|
A:--2-----------0--|--(0)--2--3--4-----2-----------------------------|
E:--0--2--3--4-----|-------------------0-----------------------------|
|                                                                    |
e:-----------------|-------------------------------------------------|
B:-----------------|-------------------------------------------------|
G:-----------------|-------------------------------------------------|
D:--9--9--9--9--7--|--(7)--7--7--7--7--9-----------------------------|
A:--7--7--7--7--7--|--(7)--7--7--7--7--7-----------------------------|
E:--0--0--0--0--5--|--(5)--5--5--5--5--0-----------------------------|

Riff C2 (q = 180, q = 148 when played between and after I riffs)

    q  q  q  e  e+     q   q  e  e  e  e+
e:-----------------|-------------------------------------------------|
B:-----------------|-------------------------------------------------|
G:--------------2--|--(2)--------------------------------------------|
D:-(2)----------2--|--(2)-----------2--2-----------------------------|
A:-(2)----------0--|--(0)--2--3--4-----2-----------------------------|
E:-(0)-2--3--4-----|-------------------0-----------------------------|
|                                                                    |
e:-----------------|-------------------------------------------------|
B:-----------------|-------------------------------------------------|
G:-----------------|-------------------------------------------------|
D:-(9)-9--9--9--7--|--(7)--7--7--7--7--9-----------------------------|
A:-(7)-7--7--7--7--|--(7)--7--7--7--7--7-----------------------------|
E:-(0)-0--0--0--5--|--(5)--5--5--5--5--0-----------------------------|

Riff C3

    (q = 180)                              (q = 144)
    q  q  q  e  e+     q   q  e  e  e  e+     w        H  q
e:-----------------|----------------------|---------|--0-------------|
B:-----------------|----------------------|---------|--0-------------|
G:--------------2--|--(2)-----------------|---------|--8-------------|
D:-(2)----------2--|--(2)-----------2--2--|--(2)----|--9-------------|
A:-(2)----------0--|--(0)--2--3--4-----2--|--(2)----|--9-------------|
E:-(0)-2--3--4-----|-------------------0--|--(0)----|--7--9\---------|
|                                                      *             |
e:-----------------|----------------------|---------|----------------|
B:-----------------|----------------------|---------|----------------|
G:-----------------|----------------------|---------|----------------|
D:-(9)-9--9--9--7--|--(7)--7--7--7--7--9--|---------|----------------|
A:-(7)-7--7--7--7--|--(7)--7--7--7--7--7--|---------|----------------|
E:-(0)-0--0--0--5--|--(5)--5--5--5--5--0--|---------|----------------|

* gradually decel. to q = 135 across next 3 measures

                               ---3---  ---3---
    e  e  e  e  e  e  e  e     e  e  e  e  e  e  e  q
e:--------------------------|-----------------------------------------
B:--------------------------|-----------------------------------------
G:--4--4--4--4--4--4--4--4--|--6--6--6--6--6--6--6--8-----------------
D:--2--2--2--2--2--2--2--2--|--7--7--7--7--7--7--7--9-----------------
A:--x--x--x--x--x--x--x--x--|--7--7--7--7--7--7--7--9-----------------
E:--4--4--4--4--4--4--4--4--|--5--5--5--5--5--5--5--7-----------------
                                         (measure finishes in riff D1)

Riff C4

     e   e  q  q  e  e+      e   e  q  e  e  e  e+
e:-----------------------|-------------------------------------------|
B:-----------------------|-------------------------------------------|
G:-------------------2---|--(2)--2-----------------------------------|
D:--(2)--2-----------2---|--(2)--2-----------2--2--------------------|
A:--(2)--2-----------0---|--(0)--0--2--3--4-----2--------------------|
E:--(0)--0--2--3--4------|----------------------0--------------------|
|                                                                    |
e:-----------------------|-------------------------------------------|
B:-----------------------|-------------------------------------------|
G:-----------------------|-------------------------------------------|
D:--(9)--9--9--9--9--7---|--(7)--7--7--7--7--7--9--------------------|
A:--(7)--7--7--7--7--7---|--(7)--7--7--7--7--7--7--------------------|
E:--(0)--0--0--0--0--5---|--(5)--5--5--5--5--5--0--------------------|


Riff D1

(measure continued from riff C3)
    s  s     q  e  e  e  q  s  s     q  e  e  e  q  s  s
e:--------|--------0--------------|--------0-------------------------|
B:--------|-----------0-----------|-----------0----------------------|
G:--9--9--|--9--9--------9--8--8--|--8--8--------8--4--4-------------|
D:--9--9--|--9--9-----------9--9--|--9--9-----------2--2-------------|
A:--7--7--|--7--7-----------9--9--|--9--9-----------x--x-------------|
E:--0--0--|--0--0-----------7--7--|--7--7-----------4--4-------------|

    q  e  e  e  q  s  s     q  e   q  q  e
e:--------0--------------|-------------------------------------------|
B:-----------0--2--2--2--|--2--2-------------------------------------|
G:--4--4-----------2--2--|--2--2-------------------------------------|
D:--2--2-----------2--2--|--2--2-------------------------------------|
A:--x--x-----------0--0--|--0--0--/4---------------------------------|
E:--4--4-----------------|------------7--4---------------------------|

Riff D2

    q  e  e  e  q  s  s     q  e  e  e  q  s  s
e:--------0--------------|--------0----------------------------------|
B:-----------0-----------|-----------0-------------------------------|
G:--9--9--------9--8--8--|--8--8--------8--4--4----------------------|
D:--9--9-----------9--9--|--9--9-----------2--2----------------------|
A:--7--7-----------9--9--|--9--9-----------x--x----------------------|
E:--0--0-----------7--7--|--7--7-----------4--4----------------------|

    q  e  e  e  q  s  s     q  e  q  q  s  s
e:--------0--------------|-------------------------------------------|
B:-----------0--2--------|-------------------------------------------|
G:--4--4-----------6--6--|--6--6--6--8--9--9-------------------------|
D:--2--2-----------7--7--|--7--7--7--9--9--9-------------------------|
A:--x--x-----------7--7--|--7--7--7--9--7--7-------------------------|
E:--4--4-----------5--5--|--5--5--5--7--0--0-------------------------|

Riff D3

    q  e  e  e  q  s  s     q  e  e  e  q  s  s
e:--------0--------------|--------0----------------------------------|
B:-----------0-----------|-----------0-------------------------------|
G:--9--9--------9--8--8--|--8--8--------8--4--4----------------------|
D:--9--9-----------9--9--|--9--9-----------2--2----------------------|
A:--7--7-----------9--9--|--9--9-----------x--x----------------------|
E:--0--0-----------7--7--|--7--7-----------4--4----------------------|

    q  e  e  e  q  s  s     q  e  q  e  e  s  s
e:--------0--------------|-------------------------------------------|
B:-----------0--2--------|-------------------------------------------|
G:--4--4-----------6--6--|--6--6--6--8--8--9--9----------------------|
D:--2--2-----------7--7--|--7--7--7--9--9--9--9----------------------|
A:--x--x-----------7--7--|--7--7--7--9--9--7--7----------------------|
E:--4--4-----------5--5--|--5--5--5--7--7--0--0----------------------|

Riff D4

    q  e  e  e  q  s  s     q  e  e  e  q  s  s
e:-----------------------|--------7----------------------------------|
B:--------9--------------|-----------7-------------------------------|
G:--9--------9-----8--8--|--8--8--------8--4--4----------------------|
D:--9--9--------9--9--9--|--9--------------2--2----------------------|
A:--7--------------9--9--|--9--------------x--x----------------------|
E:--0--------------7--7--|--7--------------4--4----------------------|

    q  e  e  e  q  s  s     q  e  q  e  e  s  s
e:--------4--0-----------|-------------------------------------------|
B:-----0--------0--------|-------------------------------------------|
G:--4--------------6--6--|--6--6--6--8--8--9--9----------------------|
D:--2--------------7--7--|--7--7--7--9--9--9--9----------------------|
A:--x--------------7--7--|--7--7--7--9--9--7--7----------------------|
E:--4--------------5--5--|--5--5--5--7--7--0--0----------------------|

Riff D5

    q  e  e  e  q  s  s     q  e  e  e  q  e
e:--------0--------------|--------0----------------------------------|
B:-----------0-----------|-----------0-------------------------------|
G:--9--9--------9--8--8--|--8--8--------8----------------------------|
D:--9--9-----------9--9--|--9--9-------------------------------------|
A:--7--7-----------9--9--|--9--9-------------------------------------|
E:--0--0-----------7--7--|--7--7-----------9\------------------------|

    e  e  e  e  e  e  e  e     e  e  e  e  e  q  e     w      w
e:--------------------------|-----------------------|--0--|--(0)-----|
B:--------------------------|-----------------------|--0--|--(0)-----|
G:--4--4--4--4--4--4--4--4--|--6--6--6--6--6--8--x--|--9--|--(9)-----|
D:--2--2--2--2--2--2--2--2--|--7--7--7--7--7--9--x--|--9--|--(9)-----|
A:--x--x--x--x--x--x--x--x--|--7--7--7--7--7--9--x--|--7--|--(7)-----|
E:--4--4--4--4--4--4--4--4--|--5--5--5--5--5--7--x--|--0--|--(0)-----|

Riff D6

    q  e  e  e  q  s  s     q  e  e  e  q  e
e:--------0--------------|--------0----------------------------------|
B:-----------0-----------|-----------0-------------------------------|
G:--9--9--------9--8--8--|--8--8--------8----------------------------|
D:--9--9-----------9--9--|--9--9-------------------------------------|
A:--7--7-----------9--9--|--9--9-------------------------------------|
E:--0--0-----------7--7--|--7--7-----------9\------------------------|

                               ---3---  ---3---
    e  e  e  e  e  e  e  e     e  e  e  e  e  e  e  Q
e:--------------------------|----------------------------------------|
B:--------------------------|----------------------------------------|
G:--4--4--4--4--4--4--4--4--|--6--6--6--6--6--6--6--8----------------|
D:--2--2--2--2--2--2--2--2--|--7--7--7--7--7--7--7--9----------------|
A:--x--x--x--x--x--x--x--x--|--7--7--7--7--7--7--7--9----------------|
E:--4--4--4--4--4--4--4--4--|--5--5--5--5--5--5--5--7----------------|

Riff E (keyboard arranged for guitar)

    e  e  e  e  e  e  e  e
e:-------------------------------------------------------------------|
B:--------7--------10-9--7-------------------------------------------|
G:-----9-----8--9----------------------------------------------------|
D:-------------------------------------------------------------------|
A:--7----------------------------------------------------------------|
E:-------------------------------------------------------------------|
    PM-------------------|

Riff F

    e  e  e  q  e  q      e  e  e  q  e  q
e:--0--0--0--0--0--0---|--0--0--0--0--0--0---------------------------|
B:--0--0--0--0--0--0---|--0--0--0--0--0--0---------------------------|
G:--9--9--9--9--9--9\--|--8--8--8--8--8--8\--------------------------|
D:--9--9--9--9--9--9\--|--9--9--9--9--9--9\--------------------------|
A:--7--7--7--7--7--7\--|--9--9--9--9--9--9\--------------------------|
E:--0--0--0--0--0--0---|--7--7--7--7--7--7\--------------------------|

    e  e  e  q  e  q      e  e  e  e  e  e  q
e:--0--0--0--0--0--0---|--------0-----------0------------------------|
B:--0--0--0--0--0--0---|--------0-----------0------------------------|
G:--4--4--4--4--4--4\--|--6--6--6--6--6--8--8------------------------|
D:--2--2--2--2--2--2\--|--7--7--7--7--7--9--9------------------------|
A:--x--x--x--x--x--x---|--7--7-----7--7--9--9------------------------|
E:--4--4--4--4--4--4\--|--5--5-----5--5--7--7------------------------|

Riff G1 (in 7/4 except last two measures)

    Q  h  s  s  q  q  q      Q  h  s  s  q  q  q
e:--0--0--0--0--0--0--0---|--5--5--5--5--5--5--5/--------------------|
B:--0--0--0--0--0--0--0---|--7--7--7--7--7--8--7/--------------------|
G:--9--9--9--9--9--9--9\--|--7--7--7--7--7--7--7/--------------------|
D:--9--9--9--9--9--9--9\--|--7--7--7--7--7--7--7/--------------------|
A:--7--7--7--7--7--7--7\--|--5--5--5--5--5--5--5/--------------------|
E:--0--0--0--0--0--0--0---|------------------------------------------|

    Q  h  s  s  q  q  q      Q  e+h     q  q  q  q
e:--7--7--7--7--7--7--7\--|--5--5----|--5--5--5--5\------------------|
B:--9--9--9--9--10-9--10\-|--7--7----|--8--7--8--7\------------------|
G:--9--9--9--9--9--9--9\--|--7--7----|--7--7--7--7\------------------|
D:--9--9--9--9--9--9--9\--|--7--7----|--7--7--7--7\------------------|
A:--7--7--7--7--7--7--7\--|--5--5----|--5--5--5--5\------------------|
E:------------------------|----------|-------------------------------|

Riff G2 (in 7/4 except last two measures)

    Q  h  s  s  q  q  q      Q  h  s  s  q  q  q
e:--0--0--0--0--0--0--0---|--5--5--5--5--5--5--5/--------------------|
B:--0--0--0--0--0--0--0---|--5--5--5--5--5--5--5/--------------------|
G:--9--9--9--9--9--9--9\--|--7--7--7--7--7--7--7/--------------------|
D:--9--9--9--9--9--9--9\--|--7--7--7--7--7--7--7/--------------------|
A:--7--7--7--7--7--7--7\--|--5--5--5--5--5--5--5/--------------------|
E:--0--0--0--0--0--0--0---|------------------------------------------|

    Q  h  s  s  q  q  q      Q  e+h     q  q  q  q
e:--7--7--7--7--7--7--7\--|--5--5----|--5--5--5--5\------------------|
B:--7--7--7--7--7--7--7\--|--5--5----|--5--5--5--5\------------------|
G:--9--9--9--9--9--9--9\--|--7--7----|--7--7--7--7\------------------|
D:--9--9--9--9--9--9--9\--|--7--7----|--7--7--7--7\------------------|
A:--7--7--7--7--7--7--7\--|--5--5----|--5--5--5--5\------------------|
E:------------------------|----------|-------------------------------|

Riff H

                                        --3--
    s  s  s  s  s  s  s  s  s  s  s  s  s s s  s  s
e:--2-p0-----0--5-p0-----0--2-p0-----0--4p2p0-----0------------------|
B:--------3-----------3-----------3------------3---------------------|
G:-------------------------------------------------------------------|
D:-------------------------------------------------------------------|
A:-------------------------------------------------------------------|
E:-------------------------------------------------------------------|

                                        --3--
    s  s  s  s  s  s  s  s  s  s  s  s  s s s  e
e:--2-p0-----0--5-p0-----0--2-p0-----0--4p2p0------------------------|
B:--------3-----------3-----------3----------------------------------|
G:-------------------------------------------------------------------|
D:-------------------------------------------------------------------|
A:-------------------------------------------------------------------|
E:-------------------------------------------------------------------|

    (q = 240)
    ---3---           ---3---
    e  e  e  e  e  e  e  e  e  e     e  e  e  e  e  e  q
e:--------------------------------|----------------------------------|
B:--3--3--3-----------------------|----------------------------------|
G:-----------5--4--2--2--2--2-----|----------------------------------|
D:-----------------------------5--|--4--2--4--2----------------------|
A:--------------------------------|--------------5--4----------------|
E:--------------------------------|--------------------5-------------|

Riff I1 (q = 74)

                         (play twice)
    s  s  e  e  e  s  s  e  s  s  e     e  e  e  e  e  e  s  s  e
e:-----------------------------------|-------------------------------|
B:--------9-----9--------5-----------|-----9-----9-----5--------7----|
G:o-------9--9--9--------6--------8-o|-----9--9--9-----6--------8----|
D:o-------9--9--9--------7--------9-o|-----9--9--9-----7--------9----|
A:--7--7-----7-----7--7-----9--9--9--|--7-----7-----7-----11-11-11---|
E:-----------------------------------|-------------------------------|
    PM PM          PM PM    PM PM       PM          PM    PM PM

Riff I2 (q = 74)

    e  e  s  s  e  e  e  e  e     e  e  s  s  e  e  e  e  e
e:-----12----------------------|--------------12---------------------|
B:-----9--------9-----5--------|-----9--------9-----5----------------|
G:-----9-----9--9-----6-----8--|-----9-----9--9-----6-----8----------|
D:--9-----------9-----7-----9--|-----9--9-----------7-----9----------|
A:--------7--------7-----9--9--|--7--------------7-----9--9----------|
E:-----------------------------|-------------------------------------|
    PM    PM PM    PM    PM       PM    PM       PM    PM

Riff J (q = 74)

    q  q  h+    w     H   q
e:--0-----0--|-(0)-|-(0)--0------------------------------------------|
B:--0-----0--|-(0)-|-(0)--0------------------------------------------|
G:--9-----9--|-(9)-|-(9)--9------------------------------------------|
D:--9-----9--|-(9)-|-(9)--9------------------------------------------|
A:--7-----7--|-(7)-|-(7)--7------------------------------------------|
E:--0-----0--|-(0)-|-(0)--0------------------------------------------|

Solo (no note length notation)

e:-------------------------------------------------------------------|
B:-15b17r15b16~~--15b17r15p12~~~b14b15r14b15r14b15r14--12b14r12------|
G:-------------------------------------------------------------------|
D:-------------------------------------------------------------------|
A:-------------------------------------------------------------------|
E:-------------------------------------------------------------------|

e:----------------------------------------------------12-------------|
B:-12b14r12b14r12b14r12b14--------------------/15b17-----15b17-------|
G:--------------------------14-14-14~~~~-----------------------------|
D:-------------------------------------------------------------------|
A:-------------------------------------------------------------------|
E:-------------------------------------------------------------------|

e:-------12-------12-------12----------------------12-------12-------|
B:-15b17~~~~15b17~~~~15b17~~~~15b17r15-15b17-15b17~~~~15b17~~~~15b17-|
G:-------------------------------------------------------------------|
D:-------------------------------------------------------------------|
A:-------------------------------------------------------------------|
E:-------------------------------------------------------------------|
                  +                    o                    +

e:-12-12-15b17b19-15b19-------4---7----------------------------------|
B:--------------------------------x----------------------------------|
G:--------------------------------x-----------7--7--6s7---6-6-6-6s7--|
D:--------------------------------0----------------------------------|
A:-------------------------------------------------------------------|
E:-------------------------------------------------------------------|
      o                           (bar up)                +     o +

e:-------------------------------------------------------------------|
B:-------------------------------------------------------------------|
G:-7-7-6s7-6s7-6s7-7-7---7s9-9-9-9-9-9-9-9-9---11---11--12-12-12-12--|
D:---------------------------------------------14---14--14-14-14-14--|
A:-------------------------------------------------------------------|
E:-------------------------------------------------------------------|
       o + o             o   +   o   +         o

e:-------------------------------15--12-----------/17----------------|
B:---------------------------------------15-12---------17b20~~~~~----|
G:-11-11-12-12--11-11-12-12--------------------12--------------------|
D:-14-14-14-14--14-14-14-14---14-------------------------------------|
A:----------------------------------------------------------------2--|
E:----------------------------------------------------------------0--|
   +  o         +     o
exibições 25.865
Acordes para:
    Composição: Geddy Lee / Kåre Christoffer Vestrheim / Neil Peart Colaboração e revisão:
    • André Braga

    0 comentários

    mostrar mais comentários

    Conseguiu tocar?

    0 tocaram 1 ainda não

    Grave um vídeo tocando Spirit Of Radio e mande pra gente!

    00:00 / 00:00
    outros vídeos desta música
    repetir qualidade Automático
    Outros vídeos desta música
    00:00 / 00:00
    Automático
    OK