Cifra Club

Black Magic Woman/Gypsy Queen

Santana

Cifra: Principal (violão e guitarra)
Selo Cifra Club: esta cifra foi revisada para atender aos critérios oficiais da nossa Equipe de Qualidade.
tom: A
                     Dm                          Am
I got a black magic woman, I got a black magic woman,
         Dm                                       Gm
I got a black magic woman got me so blind I can't see,
         Dm                       Am                          Gm
I got a black magic woman she`s try'in to make a devil out of me.

                      Dm                         Am
Turn your back on me baby, turn your back on me baby,
                Dm
yes, turn your back on me baby ,
                                Gm
stop messing around with your tricks.
           Dm
Turn your back on me baby
     Am                           Dm
you just might pick up my magic sticks.

Instrumental: Dm  Am  Dm  Gm  Dm  Am  Dm

                      Dm                         Am
Got your spell on me baby, got your spell on me baby,
           Dm                                     Gm
got your spell on me baby, turnin my heart into stone.
   /Dm                     Am                       Dm
I need you so bad, magic woman, I can't leave you alone
Intro:
E|-----------------------------------------------------------|
B|--13--15------13--15------12--15--13--15------13--15-------|
G|----------14----------14------------------14---------------|
D|-----------------------------------------------------------|
A|-----------------------------------------------------------|
E|-----------------------------------------------------------|

Guitarra:
E|-----------------------------------------------------3---------------|
B|-8p6-----------3/5\3----------------6h8p6--------------3/5\3---------|
G|---------------------------------------------------------------------|
D|---------------------------------------------------------------------|
A|---------------------------------------------------------------------|
E|-(0:10)--------------------------------------------------------------|

E|-5---3-----------3---------------5---3-----------3-----------------------10-|
B|--------6\5----------6--5\3-------------6\5----------6--5\3-----------10----|
G|-------------------------------------------------------------------10-------|
D|----------------------------------------------------------------12----------|
A|-------------------------------------------------------------12-------------|
E|-(0:26)---------------------------------------------------------------------|

E|-10-----------------------------------10--------------------------------|
B|----13-15r13-10-13^~~~~~~r10-----13^-----13-10----10--------------------|
G|-----------------------------------------------12----12-10-9~~~~~~~~----|
D|------------------------------------------------------------------------|
A|------------------------------------------------------------------------|
E|-(0:43)-----------------------------------------------------------------|

E|-------12-13---12--13p12p10----------------------10----------------------|
B|-10-13----------------------13^~~~r10-------13^-----13-10----------------|
G|-------------------------------------------------------------12^~~~~~r10-|
D|-------------------------------------------------------------------------|
A|-------------------------------------------------------------------------|
E|-(0:53)------------------------------------------------------------------|

E|-------10-12-13/15----15^~~~~~~~r-10--10-------18^------|
B|----11------------------------------13------------------|
G|-12-----------------------------------------------------|
D|--------------------------------------------------------|
A|--------------------------------------------------------|
E|-(0:58)-------------------------------------------------|

E|-10---------------------------------------------------------------------10\-|
B|-------------------10---------------------------------------------------10\-|
G|-----12^-12p10h12------12--10h12p10-------------------------------------10\-|
D|------------------------------------12--10--12--10--------------------------|
A|----------------------------------------------------12--11--10--------------|
E|-(1:04)---------------------------------------------------------13--10------|

E|-------------|
B|-------------|
G|-------------|
D|-8h10p8------|
A|-------------|
E|-(1:38)------|

E|-10--10--10-------|
B|-10--10--10--10---|
G|-------------10---|
D|------------------|
A|------------------|
E|-(1:50)-----------|

E|-------------|
B|-------------|
G|-------------|
D|-8h10p8------|
A|-------------|
E|-(2:01)------|

Solo:
E|--------10----------------------13p12p10--------------------------------|
B|-13^-------13^---13^r-10------------------13^r-10-----------------------|
G|-----------------------------------------------------14r12-10-9---------|
D|------------------------------------------------------------------------|
A|------------------------------------------------------------------------|
E|-(2:11)-----------------------------------------------------------------|

E|------------12----13p12p10-----------13^-------15^-----13-15^r-13-----18^---|
B|------10-13----------------13^----------------------------------------------|
G|-9/10-----------------------------------------------------------------------|
D|----------------------------------------------------------------------------|
A|----------------------------------------------------------------------------|
E|-(2:18)---------------------------------------------------------------------|

E|-12-13--12p10--12-13--12p10-------10-----------------------|
B|----------------------------13^------13-10-------------10--|
G|-------------------------------------------12^--r10----10--|
D|----------------------------------------------------12-----|
A|-----------------------------------------------------------|
E|-(2:27)----------------------------------------------------|

E|-----------------------------|
B|-----10-13-10----------------|
G|--------------12^r---10------|
D|--12--------------------12---|
A|-----------------------------|
E|-----------------------------|

E|-8/10--10/12--8/10-------------------------10-------------------------|
B|-------------------------------------13^------13-10----10-------------|
G|----------------------12^r^-------------------------12----12-10-9-----|
D|----------------------------------------------------------------------|
A|----------------------------------------------------------------------|
E|-(2:33)---------------------------------------------------------------|

E|-------------10---------------13------------------10-12-13-15-----15^---|
B|---10-13--^-----13^-13^r-10---13^-10-----------11-----------------------|
G|-9--------------------------------10-10-----12--------------------------|
D|------------------------------------------------------------------------|
A|------------------------------------------------------------------------|
E|-(2:41)-----------------------------------------------------------------|

E|--18^---20^----|
B|---------------|
G|---------------|
D|---------------|
A|---------------|
E|---------------|

E|-------------10--------10---------13-10-13-10-13-10---------------------------|
B|----------13-----10-13----10-13-----p--h--p--h--p---13-10-13-10---------------|
G|-12^r^------------------------------------------------p--h--p---12-10-12-10---|
D|------------------------------------------------------------------p--h--p--12-|
A|------------------------------------------------------------------------------|
E|-(2:51)-----------------------------------------------------------------------|

E|-----------------------|
B|-----------------------|
G|-----------------9-10--|
D|-----------10-12-------|
A|--10-11-12-------------|
E|-(2:56)----------------|

E|------------|
B|------------|
G|------------|
D|-10p8-------|
A|------------|
E|-(3:10)-----|

(3:19)

E|--------------------------------|
B|---------------------------7----|
G|---------------------------7----|
D|--0---0---0---0---0---0----7----|
A|----0---0---0---0---0---0--5----|
E|-(3:36)-------------------------|

E|-------------------------------------------------------------------------|
B|-7h8p7-----7----------7h8p7-----7-------------5-7/10-----------7h8p7---7-|
G|-------7---7----------------7-7-7-----------7------------------------7-7-|
D|-----------7--------------------7--------------------------------------7-|
A|-------------------------------------------------------------------------|
E|-(3:46)------------------------------------------------------------------|

E|-------------------------------------------|
B|--------------------------------------7----|
G|---7---5----5-5-----------------------7----|
D|-7---7----7-----5h7-------5-5-4-4-----7----|
A|----------------------------------7-5------|
E|-(4:02)------------------------------------|

E|-3/10-----10----10-------------10----10-------------10----10-----------|
B|-------------13----13^r-10--------13-------------------13----13^r-10---|
G|----------------------------------------12^r-10------------------------|
D|-----------------------------------------------------------------------|
A|-----------------------------------------------------------------------|
E|-(4:09)----------------------------------------------------------------|

E|-10----10--------------------------------------------------------------|
B|----13-----------------------------------------------------------------|
G|----------12^r-10---------------------9--------------------------------|
D|------------------12-10-----------------10-10h12-----------------------|
A|-----------------------------------------------------------------------|
E|-----------------------------------------------------------------------|

E|-15^--------------15^--------------14p12------------22///////////////////|
B|-----------------------------------------15------------------------------|
G|-------------------------------------------------------------------------|
D|-------------------------------------------------------------------------|
A|-------------------------------------------------------------------------|
E|-(4:23)------------------------------------------------------------------|

E|------------------------------------------------------------------------|
B|------------------------------------------------------------------------|
G|-7------7------7------5---4---2-7------5---4---2-7------7---3---2-7-----|
D|-7------7------7------5---4---2-7------5---4---2-7------5---3---2-7-----|
A|-5------5------5------3---2---0-5------3---2---0-5------3---2---0-5-----|
E|-(4:40)-----------------------------------------------------------------|

E|---------------------|
B|---------------------|
G|-5---4---2-----------|
D|-5---4---2-----------|
A|-3---2---0-----------|
E|-(5:08)--------------|
Outros vídeos desta música
    41.484 exibições
      • ½ Tom
      • A
      • Bb
      • B
      • C
      • Db
      • D
      • Eb
      • E
      • F
      • F#
      • G
      • Ab
    • Adicionar à lista

    Afinação da cifra

    Afinador online

      0 comentários

      Ver todos os comentários

      Entre para o Cifra Club PRO

      Tenha acesso a benefícios exclusivos no App e no Site

      • Chega de anúncios

      • Badges exclusivas

      • Mais recursos no app do Afinador

      • Atendimento Prioritário

      • Aumente seu limite de lista

      • Ajude a produzir mais conteúdo

      Cifra Club Pro

      Aproveite o Cifra Club com benefícios exclusivos e sem anúncios
      Cifra Club Pro
      Aproveite o Cifra Club com benefícios exclusivos e sem anúncios
      Ops (: Contenido disponible sólo en portugués.
      OK