Cifra Club

Aprenda

Gloomy Sunday

Sarah Mclachlan

Cifra: Principal (violão e guitarra)
tom: A
From: MoonC*

here is the song... i think its one of the most beautiful songs sarah sings...



ok... this is my FIRST time tabbing a song... so
be gentle... it is not exactly to the beat of the
song, but if you hear it, you'll catch on...

Capo 2  (all chords relative to the capo)
    Am             Am
E|---------------------------------------------|
B|-------1-----1-------1-----1---------1-----1-|
G|---2-------2-------2-----2---2-----2-----2---|
D|-----2---2-------2-----2---------2-----2-----|
A|-0-------------------------------------------|
E|---------------3---------------2-------------|

E|-----------------------------------------------|
B|-------1---0-----------1-----1-------1-----1---|
G|-----2---2---2-------2-----2-------2-----2---2-|
D|---2-----------2---2-----2-------2-----2-------|
A|-----------------0-----------------------------|
E|-1-----------------------------3---------------|

E|---------------------------------|
B|-------3-----3---------1-----0---|
G|-----2-----2---2-----2-----2---2-|
D|---2-----2---------2-----2-------| (intro 2xs andverses)
A|---------------------------------|
E|-2---------------1---------------|

Bridge 1 and 2:
E|-------1-----1---------1-----1---------1-----1---|
B|-----3-----3---3-----3-----3---3-----3-----3---3-|
G|---2-----2---------2-----2---------2-----2-------|
D|-0---------------3---------------0---------------|
A|-------------------------------------------------|
E|-------------------------------------------------|

these 2 parts (above and below) are for "little white flowers..."
and for "soon there'll be candles..." below is
the continuation for the part above.. not a new
part...

E|-------------0---------------------------------|
B|-------3-------3-------------------------------|
G|---0-4-----4-----------------------------------|
D|-2-------2-------------------------------------|
A|-----------------------------------------------|
E|-----------------------------------------------|

and the part below is for "dreamin'..."
Bridge 3
E|---------0-----0-------0-------0---------0-----0-|
B|-------1-----1-------1---1---1-----0-0-0-----0---|
G|-----2-----2-------2-------2---------------2-----|
D|---2---------------------------------------------|
A|-0---------------2---------------4---------------|
E|-------------------------------------------------|

E|-------0-----|
B|-----1---1---|
G|---2-------2-|    at the end of this, theres a
D|-------------|    slight variation...its real hard
A|-2-----------|    to hear, so i didnt put it...
E|-------------|    its almost the same though...
                                       after that part, go back to
                 the main part
                 (intro and the verses)

the end is basically the same... but last few picks are
done like this:

E|-------------0---|
B|-------0-0h1---1-|
G|-----2-----------|  thats basically it... its not
D|---2-------------|  PERFECT i know... but i think
A|-0---------------|  its close to the real thing...
E|-----------------|    :) hope this helps...

******************************
This file courtesy of the
******************************
Composição de Rezsö Seress / Samuel Lewis
Colaboração e revisão:
  • André
3.889 exibições
    • ½ Tom
    • A
    • Bb
    • B
    • C
    • Db
    • D
    • Eb
    • E
    • F
    • F#
    • G
    • Ab
  • Adicionar à lista

    0 comentários

    Ver todos os comentários

    Conseguiu tocar?

    1 Tocaram 0 Ainda não

    Grave um vídeo tocando Gloomy Sunday e nos envie!

    00:00 / 00:00
    outros vídeos desta música
    repetir qualidade Automático
    Outros vídeos desta música
    00:00 / 00:00
    Automático

    Cifra Club Pro

    Aproveite o Cifra Club com benefícios exclusivos e sem anúncios
    Cifra Club Pro
    Aproveite o Cifra Club com benefícios exclusivos e sem anúncios
    OK