Cifra Club

Wind of Change

Scorpions

Cifra: Solo (violão e guitarra)
tom: C
Solo:

E|-------7b8r7~~----------7b8r7b8r7--10b12~~|
B|----10---------------10-------------------|
G|-/9---------------/9----------------------|
D|------------------------------------------|
A|------------------------------------------|
E|------------------------------------------|

E|-5--7--8--7h8p7p5---5---------------------|
B|------------------8---8b10r8~---5-8b10r8~-|
G|------------------------------------------|
D|------------------------------------------|
A|------------------------------------------|
E|------------------------------------------|

E|------------------------------------------|
B|-5-6b8r6p5---5----------------------------|
G|-----------7------7b9r7p5-7~~-------------|
D|------------------------------------------|
A|------------------------------------------|
E|------------------------------------------|

E|--------------------------------12--------|
B|----10-12b13r12b13r12b13------------------|
G|-/9---------------------------------------|
D|------------------------------------------|
A|------------------------------------------|
E|------------------------------------------|

E|-------------15b17~~--15--13--12h13p12~---|
B|-12b13r12---------------------------------|
G|------------------------------------------|
D|------------------------------------------|
A|------------------------------------------|
E|------------------------------------------|

E|------------------------------------------|
B|-/10~---10/13-12~---/12--15--15/17~\------|
G|------------------------------------------|
D|-/-7~----7/10--9~---/-9--12--12/14~\------|
A|------------------------------------------|
E|------------------------------------------|

E|-10/12--10~--12b13—12~-10-----------------|
B|------------------------------------------|
G|--7/-9---7~-------------------------------|
D|------------------------------------------|
A|------------------------------------------|
E|------------------------------------------|

E|-------------------22b24~~----------------|
B|-19b21~---17----17------------------------|
G|-------------19---------------------------|
D|------------------------------------------|
A|------------------------------------------|
E|------------------------------------------|
00:00 / 00:00
Outros vídeos desta música
Repetir
Outros vídeos desta música
Composição de Klaus Meine / Peter Frampton
Colaboração e revisão:
  • Vinícius Dias
  • sandro Oliveira
45.316 exibições
    • ½ Tom
    • A
    • Bb
    • B
    • C
    • Db
    • D
    • Eb
    • E
    • F
    • F#
    • G
    • Ab
  • Adicionar à lista

    0 comentários

    Ver todos os comentários

    Entre para oCifra Club PRO

    Tenha acesso a benefícios exclusivos no App e no Site

    • Chega de anúncios

    • Prioridade de compra em lançamentos

    • Mais recursos no app do Afinador

    • Atendimento Prioritário

    • Descontos nos produtos Cifra Club

    • Ajude a produzir mais conteúdo

    00:00 / 00:00
    Capítulos
    • Tocando a música
    • Dicas Inicias
    • Equipamentos / Configurações
    • Solo (52 bpm)
    • Solo (65 bpm)
    • Encerramento
    • Ficha Técnica

    Cifra Club Pro

    Aproveite o Cifra Club com benefícios exclusivos e sem anúncios
    Cifra Club Pro
    Aproveite o Cifra Club com benefícios exclusivos e sem anúncios
    OK