Cifra Club

Quando Ele Quer

Shirley Carvalhaes

Cifra: Principal (violão e guitarra)
exibições 1.739
Tom: G
Intro (acordes): Em  Bm  C  G/B  Am  Em  D4(7)  D

Solo de violão:

E|3---2-0-------------------------0-----------------|
B|----------0-----3-------------------3-1---------0-|
G|------------------------------------------0-------|
D|--------------------------------------------------|
A|--------------------------------------------------|
E|--------------------------------------------------|

E|----------5-----3-------------3-3---2-2-----3---5-|
B|----0-1-------------------------------------------|
G|2-------------------------------------------------|
D|--------------------------------------------------|
A|--------------------------------------------------|
E|--------------------------------------------------|

G                                      D/F#
Quando o mundo diz que não tem mais jeito
Am                           Em     D
E você não sabe nem mesmo aonde ir
C                                  G
Coração carente quase explode no peito
A                              C/D
O inimigo faz de tudo para ver seu fim
G                           D/F#
Mas quem é fiel não foge a luta
Am                             Em    D
Vence a batalha com a força da fé
C                                 G
Salta as muralhas e transpõe os montes
A                       C/D
Em nome de Jesus de Nazaré

             G
E quando Ele quer
                             Em
Faz o sol parar, o dia escurecer
                           C
A noite brilhar, o céu tremer
                             Am  C/D
Balança o universo com a sua voz
             G
E quando Ele quer
                               Em
Derrota o inimigo com o seu olhar
                              C
Destrói o inferno antes de falar
                              Am  D
Já determinou a benção pra você

B/D#            B                     Em
O que Deus prometeu vai se cumprir agora
               C                    G
Chegou um novo tempo, uma nova história
            D                 G    D7(9)
Comece a cantar o hino da vitória

             G
E quando Ele quer
                             Em
Faz o sol parar, o dia escurecer
                           C
A noite brilhar, o céu tremer
                             Am  C/D
Balança o universo com a sua voz
             G
E quando Ele quer
                               Em
Derrota o inimigo com o seu olhar
                              C
Destrói o inferno antes de falar
                              D
Já determinou a benção pra você

Acordes: Em  Bm  C  G/B  Am  Em  D4(7)  D

Solo de violão:

E|3---2-0-------------------------0-----------------|
B|----------0-----3-------------------3-1---------0-|
G|------------------------------------------0-------|
D|--------------------------------------------------|
A|--------------------------------------------------|
E|--------------------------------------------------|

E|----------5-----3-------------3-3---2-2-----3---5-|
B|----0-1-------------------------------------------|
G|2-------------------------------------------------|
D|--------------------------------------------------|
A|--------------------------------------------------|
E|--------------------------------------------------|

G                                      D/F#
Quando o mundo diz que não tem mais jeito
Am                           Em
E você não sabe nem mesmo aonde ir
C                                  G
Coração carente quase explode no peito
A                A/C#          C/D
O inimigo faz de tudo para ver seu fim
G                           D/F#
Mas quem é fiel não foge a luta
Am                             Em
Vence a batalha com a força da fé
C                                 G
Salta as muralhas e transpõe os montes
A            A/C#       C/D   D
Em nome de Jesus de Nazaré

             G
E quando Ele quer
                             Em
Faz o sol parar, o dia escurecer
                           C
A noite brilhar, o céu tremer
                             Am  C/D
Balança o universo com a sua voz
             G
E quando Ele quer
                               Em
Derrota o inimigo com o seu olhar
                              C
Destrói o inferno antes de falar
                              Am  D
Já determinou a benção pra você

B/D#            B                     Em
O que Deus prometeu vai se cumprir agora
               C                    G
Chegou um novo tempo, uma nova história
            D                 G    D7(9)
Comece a cantar o hino da vitória

             G
E quando Ele quer
                             Em
Faz o sol parar, o dia escurecer
                           C
A noite brilhar, o céu tremer
                             Am  C/D
Balança o universo com a sua voz
             G
E quando Ele quer
                               Em
Derrota o inimigo com o seu olhar
                              C
Destrói o inferno antes de falar
                              Am  D
Já determinou a benção pra você

B/D#            B                     Em
O que Deus prometeu vai se cumprir agora
               C                    G
Chegou um novo tempo, uma nova história
            D               C G/B Am D E
Comece a cantar o hino da vitória
Acordes para:
    Composição: Wanderly Macedo Colaboração e revisão:
    • Joémerson Maia

    0 comentários

    mostrar mais comentários

    Conseguiu tocar?

    0 tocaram 0 ainda não

    Grave um vídeo tocando Quando Ele Quer e mande pra gente!

    00:00 / 00:00
    outros vídeos desta música
    repetir qualidade Automático
    Outros vídeos desta música
    00:00 / 00:00
    Automático
    OK