Cifra Club

Aprenda

Miss You Love

Silverchair

Cifra: Principal (violão e guitarra)
tom: G
C9                G5
   Millionaire  say
         D5(9)
Got a big shot deal
                            C9
And thrown it all away, but
                 G5
But I'm not too sure
             D5(9)
How I'm supposed to feel
Or what I'm supposed to say, but


refrão:

C9          G5              C9             G5      Am
   I'm not,    not sure,    not too sure how it feels
                 Em
To handle every day
          Am  G5   D5(9)
And I miss  you, love


C9                      G5
   Make room for the prey
               D5(9)
'Cause I'm coming in
With what I wanna say, but
C9             G5
   It's gonna hurt
       D5(9)
And I love the pain
A breeding ground for hate, but

refrão:
C9          G5             C9        G5           Am
   I'm not,    not sure,    not too sure how it feels
                 Em
To handle every day

                        Am
Like the one that just past
                             D5(9)   Bb5(9)  C9
In the crowds of all the people
F#m7(11)       E4
   Remember today


       F#m7(11)     E4
I've no respect for you
          D5(9)   A5(9)   E
And I miss      you,      love    (2x)

solo: C9   G5  D5(9)  (2x)

C9                        G5
   I love the way you love
        D5(9)
But I hate the way
                                 C9
I'm supposed to love you back and
             G5
It's just a fad
               D5(9)
Part of the, teen, teenage angst brigade and

refrão:
C9       G5             C9          G5          Am
   I'm not,    not sure,  not too sure how it feels
                  Em
To handle every day

                         Am
Like the one that just past
                              D5(9)  Bb5(9)  C9
In the crowds of all the people
F#m7(11)         E4
   Remember today
      F#m7(11)      E4
I've no respect for you
          D5(9)   A5(9)      E
And I miss       you,      love
          D5(9)   A5(9)      E
And I miss       you,      love 

F#m7(11)         E4
   Remember today
      F#m7(11)      E4
I've no respect for you
          D5(9)   A5(9)      E
And I miss       you,      love
          D5(9)   A5(9)      E
And I miss       you,      love 

C9                      G5
   I love the way you love
        D5(9)
But I hate the way
                           C9    G5   D5(9)
I'm supposed to love you back

dedilhado primeira parte

-----------------------------------------
-----3----------3----------3---------3---
-------0----------0----------0---------0-
--2------2----2-----2----0-----0---0----0
3-----------3----------------------------
-----------------------3---------3-------

-----------------------------------------
----3----------3----------3---------3----
--2---2------2---2------2---2-----2---2--
0-------0--0-------0--0-------0-0-------0
-----------------------------------------
-----------------------------------------


2x
dedilhado segunda parte

-----------------------------------------
-----3------------3----------3-----------
-------0--------0---0----------0---------
--2------2--0h2-------2----0-----0-------
3----------------------------------------
-------------------------3---------------

-----------------------------------------
------3----------------------------------
--------0--------------------------------
----0-----0------------------------------
0h2--------------------------------------
-----------------------------------------

-----------------------------------------
----3----------3----------3---------3----
--2---2------2---2------2---2-----2---2--
0-------0--0-------0--0-------0-0-------0
-----------------------------------------
-----------------------------------------
2x
Composição de Daniel Johns
Colaboração e revisão:
  • Rodrigo Laurenti
  • Kedson Euler
553.994 exibições
    • ½ Tom
    • A
    • Bb
    • B
    • C
    • Db
    • D
    • Eb
    • E
    • F
    • F#
    • G
    • Ab
  • Adicionar à lista

    0 comentários

    Ver todos os comentários

    Conseguiu tocar?

    66 Tocaram 4 Ainda não

    Grave um vídeo tocando Miss You Love e nos envie!

    00:00 / 00:00
    Outros vídeos desta música
    Repetir Qualidade Automático
    Outros vídeos desta música
    00:00 / 00:00
    Automático
    Capítulos
    • Início
    • Tocando a música
    • Acordes da Primeira Parte
    • Tocando Primeira Parte
    • Ensinando Primeira Parte
    • Acordes do Refrão
    • Tocando Primeiro Refrão
    • Tocando Segundo Refrão
    • Ensinando Ritmo do Refrão
    • Tocando Segunda Parte
    • Ensinando Segunda Parte
    • Acordes do Final
    • Tocando Final
    • Encerramento

    Cifra Club Pro

    Aproveite o Cifra Club com benefícios exclusivos e sem anúncios
    Cifra Club Pro
    Aproveite o Cifra Club com benefícios exclusivos e sem anúncios
    OK