Cifra Club

Aprenda

Last Night I Had The Strangest Dream

Simon & Garfunkel

Cifra: Principal (violão e guitarra)
tom: A
(intro)

E|-------------|
B|-------------|
G|-------------|
D|-------------|
A|-------------|
E|-------------|

    E
E|-------------|-------------|-------------|-------------|
B|-----0---0---|-----0---0---|-----0---0---|-------------|
G|-----1---1---|-----1---1---|-----1---1---|-------------|
D|-----2---2---|-----2---2---|-----2---2---|-------------|
A|-------------|-------------|-------------|-------------|
E|-0-----------|-0-----------|-0-----------|-0---2---4---|

    A                           E
E|-------------|-------------|-------------|-------------|
B|-----2---2---|-------------|-----0---0---|-----0---0---|
G|-----2---2---|-------------|-----1---1---|-----1---1---|
D|-----2---2---|-------------|-----2---2---|-----2---2---|
A|-0-----------|-0-----------|-------------|-------------|
E|-------------|-----4---2---|-0-----------|-0-----------|

    B7                          E             C#m
E|-----2---2---|-----2---2---|-----0---0---|-----4---4---|
B|-----0---0---|-----0---0---|-----0---0---|-----5---5---|
G|-----2---2---|-----2---2---|-----1---1---|-----6---6---|
D|-----1---1---|-----1---1---|-----2---2---|-----6---6---|
A|-2-----------|-2-----------|-------------|-4-----------|
E|-------------|-------------|-0-----------|-------------|

    A             B             E
E|-------------|-------------|-----0---0---|-----0---0---|
B|-----2---2---|-----4---4---|-----0---0---|-----0---0---|
G|-----2---2---|-----4---4---|-----1---1---|-----1---1---|
D|-----2---2---|-----4---4---|-----2---2---|-----2---2---|
A|-0-----------|-2-----------|-------------|-------------|
E|-------------|-------------|-0-----------|-0-----------|
                                                     Last
(1st verse)

    E
E|-------------|-------------|-------------|-------------|
B|-----0---0---|-----0---0---|-----0---0---|-------------|
G|-----1---1---|-----1---1---|-----1---1---|-------------|
D|-----2---2---|-----2---2---|-----2---2---|-------------|
A|-------------|-------------|-------------|-------------|
E|-0-----------|-0-----------|-0-----------|-0---2---4---|
   night    I   had       the   strangest     dream    I

    A             B             E
E|-------------|-------------|-------------|-------------|
B|-----2---2---|-----4---4---|-----0---0---|-----0---0---|
G|-----2---2---|-----4---4---|-----1---1---|-----1---1---|
D|-----2---2---|-----4---4---|-----2---2---|-----2---2---|
A|-0-----------|-2-----------|-------------|-------------|
E|-------------|-------------|-0-----------|-0-----------|
   ever         dreamed  be  fore                    I

    B                           E             C#m
E|-------------|-------------|-------------|-------------|
B|-----4---4---|-----4---4---|-----0---0---|-----5---5---|
G|-----4---4---|-----4---4---|-----1---1---|-----6---6---|
D|-----4---4---|-----4---4---|-----2---2---|-----6---6---|
A|-2-----------|-2-----------|-------------|-4-----------|
E|-------------|-------------|-0-----------|-------------|
  dreamed  the   world  had     all       a-greed      to

    A6            B             E
E|-------------|-------------|-------------|
B|-----2---2---|-----4---4---|-----0---0---|
G|-----2---2---|-----4---4---|-----1---1---|
D|-----4---4---|-----4---4---|-----2---2---|
A|-0-----------|-2-----------|-------------|
E|-------------|-------------|-0-----------|
    put    an    end     to    war         (end here, see last chord)

E|-------------|
B|-------------|
G|-------------|
D|-------------|
A|-------------|
E|-0---2---4---|
             I

    A                           E
E|-------------|-------------|-------------|-------------|
B|-----2---2---|-----2---2---|-----0---0---|-----0---0---|
G|-----2---2---|-----2---2---|-----1---1---|-----1---1---|
D|-----2---2---|-----2---2---|-----2---2---|-----2---2---|
A|-0-----------|-0-----------|-------------|-------------|
E|-------------|-------------|-0-----------|-0-----------|
 dreamed   I       saw  a     mighty         room,  the

    A             B             E
E|-------------|-------------|-------------|-------------|
B|-----2---2---|-----4---4---|-----0---0---|-------------|
G|-----2---2---|-----4---4---|-----1---1---|-------------|
D|-----2---2---|-----4---4---|-----2---2---|-------------|
A|-0-----------|-2-----------|-------------|-------------|
E|-------------|-------------|-0-----------|-0---2---4---|
    room   was  filled with   men                   and the

    A                           E             G#m
E|-------------|-------------|-------------|-------------|
B|-----2---2---|-----2---2---|-----0---0---|-----4---4---|
G|-----2---2---|-----2---2---|-----1---1---|-----4---4---|
D|-----2---2---|-----2---2---|-----2---2---|-----6---6---|
A|-0-----------|-0-----------|-------------|-----6---6---|
E|-------------|-------------|-0-----------|-4-----------|
  pa   per        they were        signing   said they'd

    A             B             E
E|-------------|-------------|-------------|
B|-----2---2---|-----4---4---|-----0---0---|
G|-----2---2---|-----4---4---|-----1---1---|
D|-----2---2---|-----4---4---|-----2---2---|
A|-0-----------|-2-----------|-------------|
E|-------------|-------------|-0-----------|
   never         fight   a   - gain

(end of 1st verse)

  E
E|-------------|
B|-----0---0---|
G|-----1---1---|
D|-----2---2---|
A|-------------|
E|-0-----------|
         and

(2nd verse)
(play guitar the same as in 1st verse)

(And) when the papers all were signed
And a million copies made
They all joined hands and bowed their heads
And grateful prayers were prayed
And the people in the streets below
Were dancing round and round
And guns and swords and uniforms
Were scattered on the ground

(end of 2nd verse)

E|-------------|
B|-------------|
G|-------------|
D|-------------|
A|-------------|
E|-0---2---4---|

(banjo solo)

    A                           E
E|-------------|-------------|-------------|-------------|
B|-----2---2---|-----2---2---|-----0---0---|-----0---0---|
G|-----2---2---|-----2---2---|-----1---1---|-----1---1---|
D|-----2---2---|-----2---2---|-----2---2---|-----2---2---|
A|-0-----------|-0-----------|-------------|-------------|
E|-------------|-------------|-0-----------|-0-----------|

    A             B             E
E|-------------|-------------|-------------|-------------|
B|-----2---2---|-----4---4---|-----0---0---|-----0---0---|
G|-----2---2---|-----4---4---|-----1---1---|-----1---1---|
D|-----2---2---|-----4---4---|-----2---2---|-----2---2---|
A|-0-----------|-2-----------|-------------|-------------|
E|-------------|-------------|-0-----------|-0-----------|

    A                           E             C#m
E|-------------|-------------|-------------|-------------|
B|-----2---2---|-----2---2---|-----0---0---|-----5---5---|
G|-----2---2---|-----2---2---|-----1---1---|-----6---6---|
D|-----2---2---|-----2---2---|-----2---2---|-----6---6---|
A|-0-----------|-0-----------|-------------|-4-----------|
E|-------------|-------------|-0-----------|-------------|

    A             B             E
E|-------------|-------------|-------------|-------------|
B|-----2---2---|-----4---4---|-----0---0---|-----0---0---|
G|-----2---2---|-----4---4---|-----1---1---|-----1---1---|
D|-----2---2---|-----4---4---|-----2---2---|-----2---2---|
A|-0-----------|-2-----------|-------------|-------------|
E|-------------|-------------|-0-----------|-0-----------|
                                                     Last
(return to 1st verse till "end here")

(last chord)
    E
E|-0-----------|
B|-0-----------|
G|-1-----------|
D|-2-----------|
A|-2-----------|
E|-0-----------|

(vocal line)
E|-|------------------|------------------|------------------|
B|-|------------------|------------------|------------------|
G|-|-------------0----|-0----------------|-------------0----|
D|-|------------------|-------------2--0-|------------------|
A|-|------------------|------------------|-3----------------|
E|-|------------------|------------------|------------------|
                Last   night       I--I   had         the

E|-|------------------|------------------|------------------|
B|-|------------------|-------------1----|-1----------------|
G|-|-0----------------|------------------|-------------2--0-|
D|-|-------------2--0-|------------------|------------------|
A|-|------------------|-3----------------|------------------|
E|-|------------------|------------------|------------------|
    stran   -   ge-est dream       I      e     -     v--er

E|-|------------------|------------------|------------------|
B|-|------------------|------------------|------------------|
G|-|-------0-----2----|-0----------------|-------------0----|
D|-|-3----------------|------------------|------------------|
A|-|------------------|------------------|------------------|
E|-|------------------|------------------|------------------|
    dre - amed  be     fore-------------------------- I

E|-|------------------|------------------|------------------|
B|-|------------------|------------------|------------------|
G|-|-0----------------|-------------0----|-0----------------|
D|-|-------------3----|-0----------------|-------------2--0-|
A|-|------------------|------------------|------------------|
E|-|------------------|------------------|------------------|
    dreamed     the    world       had    all         a-

E|-|------------------|------------------|------------------|
B|-|------------------|------------------|------------------|
G|-|------------------|------------------|------------------|
D|-|----------------2-|-0-----2-----3----|-3--2--------0----|
A|-|-3-----------|----|------------------|------------------|
E|-|------------------|------------------|------------------|
    greed------    To  pu -  t     an     e--nd       to

E|-|------------------|------------------|------------------|
B|-|------------------|------------------|-1----------------|
G|-|------------------|------------------|-------------2--0-|
D|-|------------------|------------------|------------------|
A|-|-3----------------|-------------3----|------------------|
E|-|------------------|------------------|------------------|
    war--------------------------- I      dreamed     I--I

E|-|------------------|------------------|------------------|
B|-|-------------1----|-1----------------|------------------|
G|-|------------------|-------------0----|----------------0-|
D|-|-3----------------|----------------3-|-2-----------|----|
A|-|------------------|------------------|------------------|
E|-|------------------|------------------|------------------|
    saw         a      migh   -    t--y   room-------    The

E|-|------------------|------------------|------------------|
B|-|------------------|------------------|------------------|
G|-|-0-----------0----|-2-----------2----|-0----------------|
D|-|------------------|------------------|------------------|
A|-|------------------|------------------|------------------|
E|-|------------------|------------------|------------------|
    room        was    filled      with   men--------------

E|-|------------------|------------------|------------------|
B|-|-------------1--1-|-1----------------|-------------1----|
G|-|------------------|-------------2--0-|------------------|
D|-|------------------|------------------|-3----------------|
A|-|------------------|------------------|------------------|
E|-|------------------|------------------|------------------|
   ------------And the pa    -     per-   they        were

E|-|------------------|------------------|------------------|
B|-|-1----------------|------------------|------------------|
G|-|-------------0----|-------------0----|-0-----0----------|
D|-|----------------3-|-2----------------|------------------|
A|-|------------------|------------------|------------------|
E|-|------------------|------------------|------------------|
    sign   -    ing-   said        They'd Ne -  ver

E|-|------------------|------------------|------------------|
B|-|------------------|------------------|------------------|
G|-|------------------|------------------|------------------|
D|-|-3-----2-----0----|------------------|------------------|
A|-|------------------|-3----------------|-------------|----|
E|-|------------------|------------------|------------------|
    fi -  ght   a  -   gain--------------------------

(the vocal line can be played even easier by sliding on A string)
10-10-7-5-3-10-10-7-5-3-15-15-12-10-8-10-12-10
10-10-8-5-10-10-7-5-3-7-5-7-8-8-7-5-3
3-15-12-10-8-15-15-10-8-7-10-10-10-12-12-10
15-15-15-12-10-8-15-15-10-8-7-10-10-10-8-7-5-3
Composição de Ed McCurdy
Colaboração e revisão:
  • Élison Duarte
797 exibições
    • ½ Tom
    • A
    • Bb
    • B
    • C
    • Db
    • D
    • Eb
    • E
    • F
    • F#
    • G
    • Ab
  • Adicionar à lista

    0 comentários

    Ver todos os comentários

    Conseguiu tocar?

    0 Tocaram 0 Ainda não

    Grave um vídeo tocando Last Night I Had The Strangest Dream e nos envie!

    00:00 / 00:00
    Outros vídeos desta música
    Repetir Qualidade Automático
    Outros vídeos desta música
    00:00 / 00:00
    Automático

    Cifra Club Pro

    Aproveite o Cifra Club com benefícios exclusivos e sem anúncios
    Cifra Club Pro
    Aproveite o Cifra Club com benefícios exclusivos e sem anúncios
    OK