Cifra Club

Stars

Simply Red

Tab de baixo: Principal
exibições 2.548
[Introdução]

Parte 1 de 2 

           P             P                 P
G|----------------------------------------------|
D|---------3h5-----------3h5---------------7h9--|
A|----------------------------------------------|
E|-3-3-3-3-----0-3-3-3-3-----3--3/7-7-7-7-------|

G|--------------7-------------------------------|
D|----------7h9---9-7---------------------------|
A|------7h9-----------9-7\----------------------|
E|-7-7------------------------------------------|

Parte 2 de 2

           P             P                 P
G|----------------------------------------------|
D|---------3h5-----------3h5---------------7h9--|
A|----------------------------------------------|
E|-3-3-3-3-----0-3-3-3-3-----3--3/7-7-7-7-------|

G|----------------------------------------------|
D|----------------------------------------------|
A|----------------------------------------------|
E|-0-7--12\-------------------------------------|


[Primeira Parte] 

Anyone who ever held you...

Parte 1 de 2
G|----------------------------------------------|
D|------------------------7---------------------|
A|----------------------7---7-------------------|
E|-3-3--3--7--7-7-7-5-5-------5-7-7-5-7\--------|

G|----------------------------------------------|
D|------------------------7---------------------|
A|----------------------7---7-------------------|
E|-3-3--3--7--7-7-7-5-5-------5-7-7-5-7--7-5----|

Parte 2 de 2
G|----------------------------------------------|
D|----------------------------------------------|
A|----------------------------------------------|
E|-3-3--3--7--7-7-7-5-5--5--5-7-7--7-5----------|

G|----------------------------------------------|
D|----------------------------------------------|
A|----------------------------------------------|
E|-3-3--3--7--7-7-7-5-5-5-3-5-7-7--7-5----------|



[Refrão ]

That I,wanna fall from the stars...


G|----------------------------------------------|
D|----------------------------------------------|
A|----------------------------------------------|
E|-3-3-3-3-3-2-2-4-4-6-7-5-5--5-5-5-6-7-7-7-7-5-|

G|----------------------------------------------|
D|----------------------------------------------|
A|----------------------------------------------|
E|-3-3-3-3-3-2-2-4-4-6-7-5-5--5-5-5--7----------|


[Introdução 2]

Parte 1 de 2 

           P             P                 P
G|----------------------------------------------|
D|---------3h5-----------3h5---------------7h9--|
A|----------------------------------------------|
E|-3-3-3-3-----0-3-3-3-3-----3--3/7-7-7-7-------|

G|----------------------------------------------|
D|----------------------------------------------|
A|----------------------------------------------|
E|-0-7------------------------------------------|


[Segunda Parte]

For the man who tried to hurt you...

Parte 1 de 2

G|----------------------------------------------|
D|------------------------7---------------------|
A|----------------------7---7-------------------|
E|-3-3--3--7--7-7-7-5-5-------5-7-7-5-7--7-5----|

G|----------------------------------------------|
D|------------------------7---------------------|
A|----------------------7---7-------------------|
E|-3-3--3--7--7-7-7-5-5-------5-7-7-5-7--5------|

Parte 2 de 2

G|----------------------------------------------|
D|----------------------------------------------|
A|----------------------------------------------|
E|-3-3--3--7--7-7-7-5-5--5--5-7-7--7-5----------|

G|----------------------------------------------|
D|----------------------------------------------|
A|----------------------------------------------|
E|-3-3—3--7--7-7-7-5-5-3-5-3-5-7-7-5-7--7/12\---|


[Refrão 2]

That I,wanna fall from the stars...

G|----------------------------------------------|
D|----------------------------------------------|
A|----------------------------------------------|
E|-3-3-3-3-3-2-2-4-4-6-7-5-5--5-5-5-6-7-7-7-7-5-|

G|----------------------------------------------|
D|----------------------------------------------|
A|----------------------------------------------|
E|-3-3-3-3-3-2-2-4-4-6-7-5-5--5-5-5--7----------|


[Introdução 3]

Parte 1 de 3

G|-----------7----------------------------------|
D|-------7h9---9-7------------------------------|
A|---7h9-----------9-7\-------------------------|
E|----------------------------------------------|

Parte 2 de 3

           P             P                 P
G|----------------------------------------------|
D|---------3h5-----------3h5---------------7h9--|
A|----------------------------------------------|
E|-3-3-3-3-----0-3-3-3-3-----3--3/7-7-7-7-------|

G|--------------7-------------------------------|
D|----------7h9---9-7---------------------------|
A|------7h9-----------9-7\----------------------|
E|-7-7------------------------------------------|

Parte 3 de 3

           P             P                 P
G|----------------------------------------------|
D|---------3h5-----------3h5---------------7h9--|
A|----------------------------------------------|
E|-3-3-3-3-----0-3-3-3-3-----3--3/7-7-7-7-------|

G|----------------------------------------------|
D|----------------------------------------------|
A|----------------------------------------------|
E|-0-7------------------------------------------|


[Terceira Parte]

Too many hearts are broken...

Parte 1 de 2

G|----------------------------------------------|
D|------------------------7---------------------|
A|----------------------7---7-------------------|
E|-3-3--3--7--7-7-7-5-5-------5-7-7-5-7-7-5-----|

G|----------------------------------------------|
D|------------------------7---------------------|
A|----------------------7---7-------------------|
E|-3-3--3--7--7-7-7-5-5-------5-7-7-5-7-7-5-----|


Parte 2 de 2

G|----------------------------------------------|
D|---------------------------------------5------|
A|-----------------------------------5h7---7-5--|
E|-3-3--3--7--7-7-7-5-5--5-5-7-7-5-7-----------7|

G|----------------------------------------------|
D|----------------------------------------------|
A|----------------------------------------------|
E|-3-3—3—7-7-7--7-5-5-5-5/7-7-7--7/12\----------|


[Refrão 3]

That I,wanna fall from the stars...

Parte 1 de 3

G|----------------------------------------------|
D|----------------------------------------------|
A|----------------------------------------------|
E|-3-3-3-3-3-2-2-4-4-6-7-5-5--5-5-5-6-7-7-7-7-5-|

G|----------------------------------------------|
D|----------------------------5h7---------------|
A|----------------------------------------------|
E|-3-3-3-3-3-2-2-4-4-6-7-5-5------5--5-6-7-7-7--|

G|----------------------------------------------|
D|----------------------------------------------|
A|----------------------------------------------|
E|-7-7-5-5--------------------------------------|

Parte 2 de 3

G|----------------------------------------------|
D|-----------------------------5h7--------------|
A|---------------------------------5h7----------|
E|-3-3-3-3-3-2-2-4-4-6-7-5-5-----------5--5-5---|

G|----------------------------------------------|
D|----------------------------------------------|
A|----------------------------------------------|
E|-7-7-7-5--------------------------------------|

Parte 3 de 3

G|----------------------------------------------|
D|----------------------------------------------|
A|----------------------------------------------|
E|-3-3-3-3-3-2-2-4-4-6-7-5-5--5-5-5--7----------|
Composição: Mick HucknallColaboração e revisão:
  • Caroline

0 comentários

    mostrar mais comentários

    Conseguiu tocar?

    0tocaram0ainda não

    Grave um vídeo tocando Stars e mande pra gente!

    00:00 / 00:00
    outros vídeos desta música
    repetirqualidadeautomática
    Outro vídeos desta música
      00:00 / 00:00
      automática
      Capítulos
      • Tocando a música
      • Apresentação / Equipamentos
      • Dicas Introdução - Refrão
      • Treinando Introdução - Parte 1 de 2
      • Treinando Introdução - Parte 2 de 2
      • Treinando Primeira Parte - Parte 1 de 2
      • Treinando Primeira Parte - Parte 2 de 2
      • Treinando Refrão
      • Dicas Segundo e Terceiro Refrão
      • Treinando Introdução 2
      • Treinando Segunda Parte - Parte 1 de 2
      • Treinando Segunda Parte - Parte 2 de 2
      • Treinando Segundo Refrão
      • Dicas Introdução 3 - Terceiro Refrão
      • Treinando Introdução 3 - Parte 1 de 3
      • Treinando Introdução 3 - Parte 2 de 3
      • Treinando Introdução 3 - Parte 3 de 3
      • Treinando Terceira Parte - Parte 1 de 2
      • Treinando Terceira Parte - Parte 2 de 2
      • Treinando Refrão 3 - Parte 1 de 3
      • Treinando Refrão 3 - Parte 2 de 3
      • Treinando Refrão 3 - Parte 3 de 3
      • Encerramento
      OK