Cifra Club

Walk Away

The Sisters Of Mercy

Cifra: Principal (violão e guitarra)
tom: C
E|----------------------------------------------------------
B|---------------------------------------------1------------
G|-----------------0-----0-0-----2-----2-2------------------
D|---2-----2-2-----------------0---0-0-----0-3---3-3-2-0----
A|-0---0-0-----0-3---3-3-----3---------------------------3--
E|----------------------------------------------------------

(riff 2)
E|------------
B|-----1-3----
G|---2-----2--
D|-2----------
A|------------
E|------------

(riff 3)
E|------------------------------------------
B|------------------------------------------
G|------------------------------------------
D|-0-2-2-2--0-2-2-2--0-2-2-2----------------
A|---------------------------0-2-3-2-2-3-2--
E|------------------------------------------

(riff 4)
E|--------------------------------------------------
B|--------------------------------------------------
G|---------2-------2---------------2----------------
D|-2-2-0-2---2-0-2---2-2-0-2-2-0-2------------------
A|-----------------------------------0-2-3-2-2-3-2--
E|--------------------------------------------------

(riff 5)
E|---0-0------------
B|-------1-3---3-1--
G|-2---------2------
D|------------------
A|------------------
E|------------------

(riff #6)
E|---------------------
B|---------------------
G|-2--2-0--0-----------
D|-----------4--4-0----
A|------------------3--
E|---------------------

(riff 7)
E|--------------------------------------------
B|---------------------------------------0----
G|---------2-------2---------------2-0-2---0--
D|-2-2-0-2---2-0-2---2-2-0-2-2-0-2------------
A|--------------------------------------------
E|--------------------------------------------

  -----------------------------------------
  ---------------0------------0-1-3---3----
  ---------2-0-2---0-2222-0-2-------2------
  -2-2-0-2---------------------------------
  -----------------------------------------
  -----------------------------------------

(riff 8)
E|------------------------------------
B|------------------------------------
G|------------------------------------
D|------------------0--0-3-3-2-2-3-2--
A|-0--0-3-3-2-2-3-2-------------------
E|------------------------------------

(riff 9)
E|------------------------------------------------------------
B|------------------------------------------------------------
G|------------------------------------------------------------
D|------------0--3-3-2-0--------------0--3-2-0----------------
A|-0--0-3-2-3------------3-0--0-3-2-3----------3-2-3-00000----
E|------------------------------------------------------------

(refrão) A  C  D  F   E 

( C  D  C  D )
00:00 / 00:00
Outros vídeos desta música
Repetir
Outros vídeos desta música
Composição de Andrew Eldritch / Wayne Hussey
Colaboração e revisão:
  • Diego Martins
1.353 exibições
    • ½ Tom
    • A
    • Bb
    • B
    • C
    • Db
    • D
    • Eb
    • E
    • F
    • F#
    • G
    • Ab
  • Adicionar à lista

    0 comentários

    Ver todos os comentários

    Entre para oCifra Club PRO

    Tenha acesso a benefícios exclusivos no App e no Site

    • Chega de anúncios

    • Prioridade de compra em lançamentos

    • Mais recursos no app do Afinador

    • Atendimento Prioritário

    • Descontos nos produtos Cifra Club

    • Ajude a produzir mais conteúdo

    00:00 / 00:00

    Cifra Club Pro

    Aproveite o Cifra Club com benefícios exclusivos e sem anúncios
    Cifra Club Pro
    Aproveite o Cifra Club com benefícios exclusivos e sem anúncios
    OK