Cifra Club

Aprenda

É Proibido Fumar

Skank

Cifra: Principal (violão e guitarra)
Quer fazer aulas de música com a gente? Responda essas perguntas
e nos ajude nesse projeto! →
tom: F#
[Intro]
    
    E5     D5  E5
E|------------------------------------------|
B|------------------------------------------|
G|--9-9-9--7---9----------------------------|
D|--9-9-9--7---9----------------------------|
A|--7-7-7--5---7----------------------------|
E|--0-0-0-----------------------------------|

E|-2p0-0-2p0-0-2-0---------2-0-0-2-0-2-2-0--|
B|-2p0-0-2p0-0-2-0-------2-2-0-0-2-0-2-2-0--|
G|-----------------2/3----------------------|
D|---------------------4--------------------|
A|------------------------------------------|
E|------------------------------------------|

E|-2-2-0-2-0--------------------------------|
B|-2-2-0-2-0-2/3----------------------------|
G|---------------4--------------------------|
D|------------------------------------------|
A|------------------------------------------|
E|-----------------6/2-2-2-4-2-5-2-7\5-2----|

E|------------------------------------------|
B|------------------------------------------|
G|------------------------------------------|
D|--14b-14b-14b-14b-14b-13-11---------------|
A|--12b-12b-12b-12b-12b-11-9----------------|
E|------------------------------------------|

[Primeira Parte]

F#
É proibido fumar

Diz o aviso que eu li

É proibido fumar

pois o fogo pode pegar
 C#
Mas nem adianta o aviso olhar
 B
Pois a brasa que agora eu vou mandar
 F#
Nem bombeiro pode apagar

Nem bombeiro pode apagar

[Segunda Parte]

    F#
Eu pego uma garota

E canto uma canção

Nela dou um beijo

Com empolgação

Do beijo sais faísca

E a turma toda grita
C#
   Que o fogo pode pegar
 F#
Nem bombeiro pode apagar

O Beijo que eu dei nela assim

Nem bombeiro pode apagar

Garota pegou fogo em mim
 C#
Sigo incendiando bem contente e feliz
B
  Nunca respeitando o aviso que diz

[Refrão]

F#
É proibido fumar

É proibido fumar

[Solo] F#

[Segunda Parte]

    F#
Eu pego uma garota

E canto uma canção

Nela dou um beijo

Com empolgação

Do beijo sais faísca

E a turma toda grita
C#
   Que o fogo pode pegar
 F#
Nem bombeiro pode apagar

O Beijo que eu dei nela assim

Nem bombeiro pode apagar

Garota pegou fogo em mim
 C#
Sigo incendiando 
                     C
Bem contente e feliz
B
  Nunca respeitando o aviso que diz

[Refrão]

F#
É proibido fumar

É proibido fumar

É proibido fumar

É proibido fumar

F#
É proibido fumar

É proibido fumar

É proibido fumar

É proibido fumar

[Final] F#
Composição de Erasmo Carlos / Roberto Carlos
Colaboração e revisão:
  • Gustavo Vaz
  • Artur Silveira
288.500 exibições
    • ½ Tom
    • A
    • Bb
    • B
    • C
    • Db
    • D
    • Eb
    • E
    • F
    • F#
    • G
    • Ab
  • Adicionar à lista

    0 comentários

    Ver todos os comentários

    Conseguiu tocar?

    11 Tocaram 2 Ainda não

    Grave um vídeo tocando É Proibido Fumar e nos envie!

    00:00 / 00:00
    Outros vídeos desta música
    Repetir Qualidade Automático
    Outros vídeos desta música
    00:00 / 00:00
    Automático

    Cifra Club Pro

    Aproveite o Cifra Club com benefícios exclusivos e sem anúncios
    Cifra Club Pro
    Aproveite o Cifra Club com benefícios exclusivos e sem anúncios
    OK