Cifra Club

Creatures of Habbit

Soul Asylum

Cifra: Principal (violão e guitarra)
tom: D
Intro:

e-------------------------------------5-------5-------5----
B-7---7---7---7---7---7---7---7---7-------7-------7--------} Guitar 1
G---7---7---7---7---7---7---7---7---7---7---7---7---7---7--
D----------------------------------------------------------
A---------------------------------5--/9------\5---7---9----} Guitar 2
E----------------------------------------------------------
                                                                  A
e-----------------------------5-------5-------5---------------------
B-7---7---7---7---7---7---7-------7-------7-------7---7---7---7---2-} Guitar 1
G---6---6---6---6---6---6---7---7---7---7---7---7---6---6---6---6-2-
D-----------------------------------------------------------------2-
A-2-----------------------5--/9------\5---7---9---2---------------0-} Guitar 2
E-------------------------------------------------------------------

Verse 1:

D                   C  
If the day wants to begin,
Bm              A
You can let the day in,
D                   C
If the darkness has no end, 
Bm           A
Light up the darkness,

Pre-Chorus:

C                          G
It ain't on what you can depend, 
                   D        C         
It's who you can depend on,

Verse 2:

If the rain wants to come in, 
You can let the rain in,
If the darkness is your friend,
You can hold the darkness,

Pre-Chorus:

C                        G
And if it ain't what you got, 
                   D         
You know you gotta have it,
    C                          G                     D
The grass gets greener all the time for creatures of habit,
    C            D
For creatures of habit,

Chorus:

G                    D     
Look out, here comes one more morning,
G               D
Habits form without a warning,
G              D
Love it can be habit-forming


Solo: C - C - D
      Intro Riff 
      D - C - Bm - A

Verse 3:

Make your enemies your friends, and leap standing naked,

Pre-Chorus:

It ain't how much you can take, it's how you take it,

Chorus:

Look out, here comes one more morning
Habits form without a warning
Love it can be habit-forming for creatures of habit

Close: G - D

Look out
A habit's forming
It's just one more morning
For creatures of habit
Composição de Dave Pirner
Colaboração e revisão:
  • Marco Santos
1.465 exibições
    • ½ Tom
    • A
    • Bb
    • B
    • C
    • Db
    • D
    • Eb
    • E
    • F
    • F#
    • G
    • Ab
  • Adicionar à lista

    0 comentários

    Ver todos os comentários

    Conseguiu tocar?

    0 Tocaram 0 Ainda não

    Grave um vídeo tocando Creatures of Habbit e nos envie!

    00:00 / 00:00
    Outros vídeos desta música
    Repetir Qualidade Automático
    Outros vídeos desta música
    00:00 / 00:00
    Automático

    Cifra Club Pro

    Aproveite o Cifra Club com benefícios exclusivos e sem anúncios
    Cifra Club Pro
    Aproveite o Cifra Club com benefícios exclusivos e sem anúncios
    OK