Cifra Club

Through The Glass

Stone Sour

Tab de baixo: Principal
exibições 3.158
Refrão 4x:
G|-----------------------------------|
D|------------------1~---------------|
A|2~-------4~------------------------|
E|-----------------------------------|

Verso 3x:
G|------------------------------------|
D|------------------1~-----------66644|
A|2~-------4~-------------------------|
E|------------------------------------|

Refrão 2:
G|-----------------------------------|-----------------------------------|
D|-------------------1~-------1-3-4-6|------------------1~---------------|
A|2~-------4~------------------------|2~-------4~------------------------|
E|-----------------------------------|-----------------------------------|

Verso 3x:
G|----------------------------------|
D|------------------1~-------1-3-4-6|
A|2~-------4~-----------------------|
E|----------------------------------|

G|----------------------------------------------|
D|----------------------------------------------|
A|2-2-2222-22-4-4-4444-44-6-6-6666-6-6-6-6666-6\|
E|----------------------------------------------|

G|---------------------------------------------|
D|---------------------------------------------|(2x)
A|2-2-2222-22-4-4-4444-44-6-6-6666-66-6-8-9-11\|
E|---------------------------------------------|

G|------------------------------------------|
D|------------------------------------------|
A|2-2-2222-22-4-4-4444-44-66666666-6-8-9-11\|
E|------------------------------------------|

Ponte:
G|---------------------------|---------------------------------|
D|---------------------------|---------------------------------|
A|22x----44x----6~--66-6~--6x|-22x----44x----6~-------6-8-9-11\|
E|---------------------------|---------------------------------|

G|---------------------------------------------|
D|---------------------------------------------|(2x)
A|2-2-2222-22-4-4-4444-44-6-6-6666-66-6-8-9-11\|
E|---------------------------------------------|

G|------------------------------------|
D|------------------------------------|
A|22222222-44444444-66666666-6-8-9-11\|
E|------------------------------------|

Ponte 2 2x:
G|---------------------------------------------|
D|---------------------------------------------|
A|2-2-2222-22-4-4-4444-44-6-6-6666-66-6-8-9-11\|
E|---------------------------------------------|

Final:
G|------------------------------------|--------------------|
D|------------------------------------|--------------------|
A|22222222-44444444-66666666-6-8-9-11\|22222222-44444444-6~|
E|------------------------------------|--------------------|
Composição: Stone SourColaboração e revisão:
  • Gustavo Lacerda

0 comentários

    mostrar mais comentários

    Conseguiu tocar?

    2tocaram0ainda não

    Grave um vídeo tocando Through The Glass e mande pra gente!

    00:00 / 00:00
    outros vídeos desta música
    repetirqualidadeautomática
    Outro vídeos desta música
      00:00 / 00:00
      automática
      OK