Cifra Club

Welcome to Hell

Sum 41

Tab de baixo: Principal
[1° Parte]
G|-------------------------------------------|
D|-------------------------------------------|  (2x)
A|--777-5-777-5-777-5-777-----5555-----------|
E|------------------------3333----3333-0000--|

G|-------------------------------------------|
D|-------------------------------------------|
A|--777-5-777------5555--777-5-777----5555---|
E|------------3333---------------3333--------|

G|-------------------------------------------|
D|-------------------------------------------|  (2x)
A|--777-5-777-5-777-5-777-----5555-----------|
E|------------------------3333----3333-0000--|

[Refrão]

G|-------------------------|
D|-----------------65------|  (2x)
A|--3333------5555----757--|
E|-------3333--------------|

G|---------------------------------------------|
D|-----------------65--------------------------|
A|--3333------5555----757------3333------5555--|
E|-------3333-------------0000------3333-------|

[Solo de baixo]

G|----------------------9999-----------------------------|
D|-------5557------5577------9h10p9-7h9p7-5h7p5-4h5p4/12-|
A|--7777------7777---------------------------------------|
E|-------------------------------------------------------|

[1° Parte]

G|-------------------------------------------|
D|-------------------------------------------|  (2x)
A|--777-5-777-5-777-5-777-----5555-----------|
E|------------------------3333----3333-0000--|

[Refrão]

G|-------------------------|
D|-----------------65------|  (2x)
A|--3333------5555----757--|
E|-------3333--------------|

G|---------------------------------------------|
D|-----------------65--------------------------|
A|--3333------5555----757------3333------5555--|
E|-------3333-------------0000------3333-------|

G|-------------------------|
D|-------------------------|
A|--7-10--------------5-7--|
E|-------8-10-11--6-8------|

[Refrão]

G|-------------------------|
D|-----------------65------|  (2x)
A|--3333------5555----757--|
E|-------3333--------------|

[Final]

G|------------------------------------------------------|
D|-----------------65---------9--------------9----------|
A|--3333------5555----757--77------------77-------------|
E|-------3333-------------------88--1010------88--1010--|
exibições 11
Composição: Deryck Whibley Colaboração e revisão:
  • luis carvalho

0 comentários

mostrar mais comentários

Conseguiu tocar?

0 tocaram 0 ainda não

Grave um vídeo tocando Welcome to Hell e mande pra gente!

00:00 / 00:00
outros vídeos desta música
repetir qualidade Automático
Outros vídeos desta música
00:00 / 00:00
Automático
OK