Notificações Amigos pendentes

      System of a Down

      Cigaro

      82.078 exibições
      Tom: C
      Afinação: Drop C# (C# G# C# F# A# D#)
      
      Intro 2x:
      
      
      Eb|-------------------------------------------------|
      Bb|-------------------------------------------------|
      Gb|-------------------------------------------------|
      Db|-0-0-1p0-0-0-1p0-0-0-1p0-0-0-1p0-0-0-1p0-0-0-1p0-|
      Ab|-0-0-1p0-0-0-1p0-0-0-1p0-0-0-1p0-0-0-1p0-0-0-1p0-|
      Db|-0-0-1p0-0-0-1p0-0-0-1p0-0-0-1p0-0-0-1p0-0-0-1p0-|
      
         * *     * *     * *     * *     * *     * *
      
      Eb|-------------------|
      Bb|-------------------|
      Gb|-------------------|
      Db|-------------------|
      Ab|-6-5-3-5-3-1-3-1---|
      Db|-------------------|
      
      
      Intro (final 2x):
      
      
      Eb|-------------------------------------------------|
      Bb|-------------------------------------------------|
      Gb|-------------------------------------------------|
      Db|-1p0-1p0-1p0-1p0-1p0-1p0-1p0-1p0-1p0-1p0-1p0-1p0-|
      Ab|-1p0-1p0-1p0-1p0-1p0-1p0-1p0-1p0-1p0-1p0-1p0-1p0-|
      Db|-1p0-1p0-1p0-1p0-1p0-1p0-1p0-1p0-1p0-1p0-1p0-1p0-|
      
         * * * * * * * * * * * * * * * * * * * * * * * *
      
      Eb|-------------------|
      Bb|-------------------|
      Gb|-------------------|
      Db|-------------------|
      Ab|-6-5-3-5-3-1-3-1---|
      Db|-------------------|
      
      
      Verso 2x:
      
                 "My cock is much..."
      
      Eb|-------------------------------------------------|
      Bb|-------------------------------------------------|
      Gb|-------------------------------------------------|
      Db|-7-7-7~------------------------------------------|
      Ab|-7-7-7~------------------------------------------|
      Db|-5-5-5~------------------------------------------|
      
         * * *
         "My cock can..."
      
      Eb|----------------------------------------------|
      Bb|----------------------------------------------|
      Gb|---------------------------------7-7-7--------|
      Db|10-9-10-9---7-6-7-6----3-2--3-2—-7-7-7--------|
      Ab|-8/7--8/7---5/4-5/4----1/0--1/0--5-5-5--------|
      Db|----------------------------------------------|
      
      
      Refrão 2x:
      
        "Cool, in denial..."
      
      Eb|-------------------------------------------------|
      Bb|-------------------------------------------------|
      Gb|-------------------------------------------------|
      Db|-0-0-1p0-0-0-1p0-0-0-1p0-0-0-1p0-0-0-1p0-0-0-1p0-|
      Ab|-0-0-1p0-0-0-1p0-0-0-1p0-0-0-1p0-0-0-1p0-0-0-1p0-|
      Db|-0-0-1p0-0-0-1p0-0-0-1p0-0-0-1p0-0-0-1p0-0-0-1p0-|
      
         * *     * *     * *     * *     * *     * *
        "...cigaro, cigaro, cigaro"
      
      Eb|-------------------|
      Bb|-------------------|
      Gb|-------------------|
      Db|-------------------|
      Ab|-6-5-3-5-3-1-3-1---|
      Db|-------------------|
      
      
      Verso 2x:
      
                 "My shit stinks..."
      
      Eb|-------------------------------------------------|
      Bb|-------------------------------------------------|
      Gb|-------------------------------------------------|
      Db|-7-7-7~------------------------------------------|
      Ab|-7-7-7~------------------------------------------|
      Db|-5-5-5~------------------------------------------|
      
         * * *
         "My shis..."
      
      Eb|----------------------------------------------|
      Bb|----------------------------------------------|
      Gb|---------------------------------7-7-7--------|
      Db|10-9-10-9---7-6-7-6----3-2--3-2—-7-7-7--------|
      Ab|-8/7--8/7---5/4-5/4----1/0--1/0--5-5-5--------|
      Db|----------------------------------------------|
      
      
      Refrão 2x:
      
        "Cool, in denial..."
      
      Eb|-------------------------------------------------|
      Bb|-------------------------------------------------|
      Gb|-------------------------------------------------|
      Db|-0-0-1p0-0-0-1p0-0-0-1p0-0-0-1p0-0-0-1p0-0-0-1p0-|
      Ab|-0-0-1p0-0-0-1p0-0-0-1p0-0-0-1p0-0-0-1p0-0-0-1p0-|
      Db|-0-0-1p0-0-0-1p0-0-0-1p0-0-0-1p0-0-0-1p0-0-0-1p0-|
      
         * *     * *     * *     * *     * *     * *
        "...cigaro, cigaro, cigaro"
      
      Eb|-------------------|
      Bb|-------------------|
      Gb|-------------------|
      Db|-------------------|
      Ab|-6-5-3-5-3-1-3-1---|
      Db|-------------------|
      
      
      Ponte 2x:
      
      
      Eb|-------------------------------------------------|
      Bb|-------------------------------------------------|
      Gb|-------------------------------------------------|
      Db|-1p0-1p0-1p0-1p0-1p0-1p0-1p0-1p0-1p0-1p0-1p0-1p0-|
      Ab|-1p0-1p0-1p0-1p0-1p0-1p0-1p0-1p0-1p0-1p0-1p0-1p0-|
      Db|-1p0-1p0-1p0-1p0-1p0-1p0-1p0-1p0-1p0-1p0-1p0-1p0-|
      
         * * * * * * * * * * * * * * * * * * * * * * * *
      
      Eb|-------------------|
      Bb|-------------------|
      Gb|-------------------|
      Db|-------------------|
      Ab|-6-5-3-5-3-1-3-1---|
      Db|-------------------|
      
      
      Ponte pt 2 - 3x:
      
         "Can't you see that..."
      
      Eb|--------------------------------------------------------------|
      Bb|-----3-----3-----3-----3--6565--------------------------------|
      Gb|-----2-----2-----2-----2-------7676---------------------------|
      Db|-0-0---0-0---0-0---0-0--------------8787-5-5------------------|
      Ab|-0-0---0-0---0-0---0-0--------------------4-4-----------------|
      Db|-0-0---0-0---0-0---0-0----------------------------------------|
      
          * *   * *   * *   * *
      
      Ponte Pt 3 - 3x:
      
      
      Eb|-------------------------------------------------------|
      Bb|-6565--------------------------------------------------|
      Gb|-----7676----------------------------------------------|
      Db|---------8787-5-5--------------------------------------|
      Ab|---------------4-4-------------------------------------|
      Db|-------------------------------------------------------|
      
      
      Ponte parte 4 (3x):
         "We´re the regulators..."
      
      Eb|-------------------------------------------------------|
      Bb|-------------------------------------------------------|
      Gb|-------------------------------------------------------|
      Db|---------------------------------------------6~--------|
      Ab|-8787-10-9-10-9--5454-6565-1-0-1-0-1-0-1-0—5~----------|
      Db|-------------------------------------------------------|
      
      
      Refrão 2x:
      
        "Cool, in denial..."
      
      Eb|-------------------------------------------------|
      Bb|-------------------------------------------------|
      Gb|-------------------------------------------------|
      Db|-0-0-1p0-0-0-1p0-0-0-1p0-0-0-1p0-0-0-1p0-0-0-1p0-|
      Ab|-0-0-1p0-0-0-1p0-0-0-1p0-0-0-1p0-0-0-1p0-0-0-1p0-|
      Db|-0-0-1p0-0-0-1p0-0-0-1p0-0-0-1p0-0-0-1p0-0-0-1p0-|
      
         * *     * *     * *     * *     * *     * *
        "...cigaro, cigaro, cigaro"
      
      Eb|-------------------|
      Bb|-------------------|
      Gb|-------------------|
      Db|-------------------|
      Ab|-6-5-3-5-3-1-3-1---|
      Db|-------------------|
      
      
      Ponte pt 4 - 3x:
      
         "We´re the regulators..."
      
      Eb|-------------------------------------------------------|
      Bb|-------------------------------------------------------|
      Gb|-------------------------------------------------------|
      Db|---------------------------------------------6~--------|
      Ab|-8787-10-9-10-9--5454-6565-1-0-1-0-1-0-1-0—5~----------|
      Db|-------------------------------------------------------|
      
      
      Refrão 2x:
      
        "Cool, in denial..."
      
      Eb|-------------------------------------------------|
      Bb|-------------------------------------------------|
      Gb|-------------------------------------------------|
      Db|-0-0-1p0-0-0-1p0-0-0-1p0-0-0-1p0-0-0-1p0-0-0-1p0-|
      Ab|-0-0-1p0-0-0-1p0-0-0-1p0-0-0-1p0-0-0-1p0-0-0-1p0-|
      Db|-0-0-1p0-0-0-1p0-0-0-1p0-0-0-1p0-0-0-1p0-0-0-1p0-|
      
         * *     * *     * *     * *     * *     * *
        "...cigaro, cigaro, cigaro"
      
      Eb|-------------------|
      Bb|-------------------|
      Gb|-------------------|
      Db|-------------------|
      Ab|-6-5-3-5-3-1-3-1---|
      Db|-------------------|
      
      
      Final: Palm Mute nas cordas soltas, acompanhando o ritmo
        Composição: Daron Malakian / Serj TankianColaboração e revisão:
        • Flavio
        • Heitor

        Comentários 14

        140 .
        • gustavo.marquessilva.75 gustavo.marquessilva.75: Em 31/08/2014 08:47

          tem gente pedindo aula disso ? peguei essa música de guitarra no meu violão ao invés de ficar pedindo vídeo aula estuda mais que tu consegue

        • Railla Railla: Em 14/06/2014 19:15

          this music is so fuck. I love it

        • Pedro Pedro: Em 20/04/2013 13:24

          eu consegui tocar

        • night night: Em 18/04/2013 11:27

          muito massa vey..

        • morisoca02 morisoca02: Em 20/01/2013 02:24

          cade as porra das letra vei

        • mr.wagner mr.wagner: Em 10/08/2012 16:55

          Ei galera se quiserem mais video aulas de system me add no face e entrem no meu grupo, tem que ficar mais democratico essa merda!

          • Bruno Bruno: Em 30/10/2013 11:57

            como eu te acho, manow??

        • mikaferreira mikaferreira: Em 24/07/2012 15:54

          Videooooo Aulaaaaaaaaa

        • c.h.r.s c.h.r.s: Em 21/07/2012 20:38

          Video aula!!!

        • mikaferreira mikaferreira: Em 17/07/2012 20:13

          Infeliz que fez a cifra, o nome do cd é MeZmeriZe com Z

        140 cancelar

        conseguiu tocar?

        • •••

        covers

        Grave um vídeo tocando Cigaro e mande pra gente!

        Ex.: http://www.youtube.com/watch?v=0IvSvIwGdwk
        ver covers de outras músicas »
        0:00 / 0:00

        Capítulos

          2 versões de baixo exibições contribuição e correção
          play/pausefechar subir/descer velocidade
          6ª corda E5ª corda A4ª corda D3ª corda G2ª corda B1ª corda E
            acordes
            publicidade
            fechar
            ok