Cifra Club

Forest

System Of a Down

Cifra: Principal (violão e guitarra)
tom: C (forma dos acordes no tom de D) Afinação: D G C F A D
Afinação: (C,G,C,F,A,D)
D|----------------------------------------------------|
A|----------------------------------------------------|
F|--6--666666--7--777777--8--888888--9--999999--------| (2x)
C|--4--444444--5--555555--6- 666666--7--777777--------|
G|--5--555555--6--666666--7--777777--8--888888--------|
C|----------------------------------------------------|

Verso 1:
D|-----------|
A|-----------|
F|-----------|
C|--0-0-5-3--|  (4x)
G|--0-0-5-3--|
C|--0-0-5-3--|
Verso 2:
D|---------|
A|---------|
F|---------|
C|-0-0-3-5-|  (4x)
G|-0-0-3-5-|
C|-0-0-3-5-|

Verso 3: 
D|-----------|
A|-----------|
F|-----------|
C|--0-0-5-3--|  (4x)
G|--0-0-5-3--|
C|--0-0-5-3--|

Verso 4: 
D|---------|
A|---------|
F|---------|
C|-0-0-3-5-|  (4x)
G|-0-0-3-5-|
C|-0-0-3-5-|

Verso 5:
D|----------------------------------------|
A|----------------------------------------|
F|--6-------------666--7-------------777--|
C|--4---------444------5---------555------|
G|--5--555555----------6--666666----------|
C|----------------------------------------|

Verso 6:
D|----------------------------------------|
A|----------------------------------------|
F|--8-------------888--9-------------999--|
C|--6---------666------7---------777------|
G|--7--777777----------8--888888----------|
C|----------------------------------------|
                Repete Verso:2
                Repete Verso:5
                Repete Verso:1

Verso 7:
D|---------------------------------------------------------------------------------------|
A|---------------------------------------------------------------------------------------|
F|-8-------------888-9-------------999-10----------------101010--11---------------111111-|
C|-5---------555-----6---------666------9---------999------------10-----101010-----------|
G|-6--666666---------7--777777----------8--888888----------------9--999999---------------|
C|---------------------------------------------------------------------------------------|
Verso 8:
D|-------------------------------------------------------|
A|-------------------------------------------------------|
F|-----8-------8-------9-------9--------10---------10----|
C|---8---8---8---8---9---9---9---9---10----10---10----10-|
G|-6-------6-------7-------7-------8----------8----------|
C|-------------------------------------------------------|
  Verso 9:                            Verso 10:
D|-------------------------|      |--------------|
A|-------------------------|      |--------------|
F|-------------------------|      |--------------|
C|----------------0--1--5--|(4x)  |--------------|
G|----------------0--1--5--|      |--------------|
C|--8-10-8-7-5-4--0--1--5--|      |-8-10-8-7-5-4-|
     Repete Verso:1
     Repete Verso:2
     Repete Verso:5
     Repete Verso:1
     Repete Verso:6
     Repete Verso:2
     Repete Verso:5
     Repete Verso:1
     Repete Verso:7
     Repete Verso:8
     Repete Verso:9

D|---------------|
A|---------------|
F|---------------|
C|---------------|(3x)
G|---------------|
C|--8-8-8-8-7-5--|
      Repete Verso:1
      Repete Verso:2
D|----------------------------|
A|----------------------------|
F|----------------------------|
C|----------------------------|
G|---------------6-6-6-6-5-3--|
C|--8-8-8-8-7-5---------------|
        Repete Verso:1

D|-----------------------------------------|
A|-----------------------------------------|
F|-----------------------------------------|
C|-----------------------------------------|
G|---------------6-6-6-6-5-3--8-8-8-8-6-5--|
C|--8-8-8-8-7-5----------------------------|
             Repete Verso:1

D|----------------------------------------------------------|
A|----------------------------------------------------------|
F|----------------------------------------------------------|
C|--------------------------------6-6-6-6-5-3--8-8-8-8-6-5--|
G|--8-8-8-8-6-5--10-10-10-10-8-6----------------------------|
C|----------------------------------------------------------|
  (abafado)
D|------------|
A|------------|
F|------------|
C|------------|4x
G|-0000000000-|
C|-0000000000-|
Repete Verso:8 mais rapaido

D|-------------------|
A|-------------------|
F|-------------------|
C|----------------0--|
G|----------------0--|
C|--8-10-8-7-5-4--0--|

Letra:

Walk with me my little child,
To the forest of denial,
Speak with me my only mind,
Walk with me until the time,
And make the forest turn to wine,
You take the legend for a fall,
You saw the product,

Why can't you see that you are my child,
Why don't you know that you are my mind,
Tell everyone in the world, that I'm you,
Take this promise to the end of you.

Walk with me my little friend,
Take this promise to the end,
Speak with me my only mind,
Walk with me until the end,
And make the forest turn to sand,
You take the legend for a fall,
You saw the product,

Why can't you see that you are my child,
Why don't you know that you are my mind,
Tell everyone in the world, that I'm you,
Take this promise to the end of you.

Take this promise for a ride,
You saw the forest, now come inside,
You took the legend for its fall,
You saw the product of it all,
No televisions in the air,
No circumcisions on the chair,
You made the weapons for us all,
Just look at us now,

Why can't you see that you are my child,
Why don't you know that you are my mind,
Tell everyone in the world, that I'm you,
Take this promise to the end of you.
00:00 / 00:00
Outros vídeos desta música
Repetir
Outros vídeos desta música
Composição de Daron Malakian / Serj Tankian
Colaboração e revisão:
  • Arthur Louzada
  • rafael augusto
51.693 exibições
    • ½ Tom
    • A
    • Bb
    • B
    • C
    • Db
    • D
    • Eb
    • E
    • F
    • F#
    • G
    • Ab
  • Adicionar à lista

    0 comentários

    Ver todos os comentários

    Conseguiu tocar?

    10 Tocaram 1 Ainda não

    Grave um vídeo tocando Forest e nos envie!

    00:00 / 00:00

    Cifra Club Pro

    Aproveite o Cifra Club com benefícios exclusivos e sem anúncios
    Cifra Club Pro
    Aproveite o Cifra Club com benefícios exclusivos e sem anúncios
    OK