Cifra Club

Aprenda

Roulette

System Of a Down

Cifra: Versão 7 (violão e guitarra)
tom: Ab
e|-----------------------
B|--7-----7---------7----
G|-----8-----8---8-----8-
D|-----------------------
A|-----------------------
E|-----------------------

e|------------------------
B|------9-----------5-----
G|--10-----10---6-------6-
D|------------------------
A|------------------------
E|------------------------
                                                 VERSOS
e|-----------------------
B|-------8---------8-----
G|----9-----9---9-----9--
D|-----------------------
A|-----------------------
E|-----------------------

e|-----------------------
B|------4---------6------
G|---3-----3---5-----5---
D|-----------------------
A|-----------------------
E|-----------------------

______________________________________________________________________

e|-----------------------
B|--7-----7---------7----
G|-----8-----8---8-----8-
D|-----------------------
A|-----------------------
E|-----------------------

e|-----------------------
B|--8-----8---------8----
G|-----9-----9---9-----9-                       REFRAO
D|-----------------------
A|-----------------------
E|-----------------------

e|-----------------------
B|--5-----5---------5----
G|-----6-----6---6-----6-
D|-----------------------
A|-----------------------
E|-----------------------

_____________________________________________________________________________

e|--8--8-10-11--10-11--13--10-11-13-11-10-8-10-11-10-8-8-----
B|-------------------------------------------------------8-8-
G|-----------------------------------------------------------
D|-----------------------------------------------------------
A|-----------------------------------------------------------
E|-----------------------------------------------------------          SOLO (2x)

e|-----------------------------------------------------------
B|--13-11-10-8-----8--10--8----------------------------------
G|--------------10----------10-10----------------------------
D|--------------------------------8-8--9h11-9-7-6-7-9-6-6----
A|-----------------------------------------------------------
E|-----------------------------------------------------------

____________________________________________________________________________


e|-----------------------
B|--7-----7---------7----
G|-----8-----8---8-----8-
D|-----------------------
A|-----------------------
E|-----------------------

e|------------------------
B|------9-----------5-----
G|--10-----10---6-------6-
D|------------------------
A|------------------------                   FINAL
E|------------------------

e|-----------------------
B|-------8---------8-----
G|----9-----9---9-----9--
D|-----------------------
A|-----------------------
E|-----------------------

e|--------------------------
B|------4---------6------9--
G|---3-----3---5-----5------
D|--------------------------
A|--------------------------
E|--------------------------

Composição de Daron Malakian
Colaboração e revisão:
  • João Otávio
24.607 exibições
    • ½ Tom
    • A
    • Bb
    • B
    • C
    • Db
    • D
    • Eb
    • E
    • F
    • F#
    • G
    • Ab
  • Adicionar à lista

    0 comentários

    Ver todos os comentários

    Conseguiu tocar?

    0 Tocaram 0 Ainda não

    Grave um vídeo tocando Roulette e nos envie!

    00:00 / 00:00
    outros vídeos desta música
    repetir qualidade Automático
    Outros vídeos desta música
    00:00 / 00:00
    Automático
    Capítulos
    • Tocando a música
    • Dicas iniciais / Equipamentos
    • Afinação (Drop C)
    • Acordes da Introdução
    • Tocando Introdução
    • Ensinando Introdução
    • Dicas Primeira Parte
    • Tocando Primeira Parte
    • Acordes do Refrão
    • Tocando Refrão
    • Ensinando Primeiro Refrão
    • Dicas da Segunda Parte
    • Tocando Segunda Parte
    • Dicas Solo
    • Tocando Solo
    • Ensinando Solo 1 (Principal)
    • Ensinando Solo 2
    • Dicas do Terceiro Refrão
    • Tocando Refrão
    • Encerramento
    • Ficha técnica / Erros de gravação

    Cifra Club Pro

    Aproveite o Cifra Club com benefícios exclusivos e sem anúncios
    Cifra Club Pro
    Aproveite o Cifra Club com benefícios exclusivos e sem anúncios
    OK