Cifra Club

Esquilador

Telmo de Lima Freitas

Cifra: Principal (violão e guitarra)
exibições 53.934
Tom: C
Intro: C G7 F C

E|-12--10-----10------------------------|-------------------------------------|
B|--------13------13--12--13--12--10----|---------10--------------------------|
G|------------------------------------12|-10--12------12--9--10--12--10--9--12|
D|--------------------------------------|-------------------------------------|
A|--------------------------------------|-------------------------------------|
E|--------------------------------------|-------------------------------------|

E|-12--13--12--10--12--10----------------|---------------------7--8--8--------|
B|-------------------------13--12--10----|--------------8--10-----------------|
G|-------------------------------------12|-10--7--8--9------------------------|
D|---------------------------------------|------------------------------------|
A|---------------------------------------|------------------------------------|
E|---------------------------------------|------------------------------------|

  C                    F                G7              C
Quando é tempo de tosquia já clareia o dia com outro sabor
             F                  C                    D7 (G7)         G7 (C)
As tesouras cortam em um só compasso enrijecendo o braço do esquilador
             Am                                 E7               Am
Um descascarreia, o outro já maneia e vai levantando para o tosador
              F                 C                 D7 (G7)                G7 (C)
Avental de estopa, faixa na cintura e um gole de pura pra espantar o calor

E|-12--13--12--10--12--10----------------|-----------------------7--8--10--8--8----|
B|-------------------------13--12--10----|-----------------------------------------|
G|-------------------------------------12|-10--9--10--12--8--10--------------------|
D|---------------------------------------|-----------------------------------------|
A|---------------------------------------|-----------------------------------------|
E|---------------------------------------|-----------------------------------------|

                     F                  G7                C
Alma branca igual ao velo, tosando a martelo quase envelheceu
            F                    C                  D7 (G7)            G7 (C)
Hoje perguntando para a própria vida pr'onde foi a lida que ele conheceu
              Am                               E7             Am
Quase um pesadelo, arrepia o pelo do couro curtido do esquilador
               F                 C                 D7 (G7)           G7 (C)
Ao cambiar de sorte levou cimbronaço ouvindo o compasso tocado a motor

E|-12--13--12--10--12--10----------------|-----------------------7--8--10--8--8----|
B|-------------------------13--12--10----|-----------------------------------------|
G|-------------------------------------12|-10--9--10--12--8--10--------------------|
D|---------------------------------------|-----------------------------------------|
A|---------------------------------------|-----------------------------------------|
E|---------------------------------------|-----------------------------------------|

                                 F                  G7                  C
A vida disfarça lembrando a comparsa quando alinhavava o seu próprio chão
            F               C             D7 (G7)              G7 (C)
Envidou os pagos numa só parada, 33 de espada, mas perdeu de mão
             Am                                     E7             Am
Nesta vida guapa vivendo de inhapa, vai voltar aos pagos para remoçar
               F                   C                   D7 (G7)              G7 (C)
Quem vendeu tesouras na ilusão povoeira, volte pra fronteira para se encontrar
               G7                  C  F  C  G  C
Volte pra fronteira para se encontrar

E|--------------------------------|-----------------------------------------------|
B|--------------------------------|-----------------------------------------------|
G|-9--10--9--7--9--7--------------|----------------------------7------------------|
D|--------------------10--9--7----|--------7---------7--9--10-----10--10----------|
A|------------------------------10|-8--10----10--10-------------------------------|
E|--------------------------------|-----------------------------------------------|
Acordes para:
    Composição: Edson Otto Colaboração e revisão:
    • Cristofer Fagundes
    • Leonardo Silva
    • Eberson Muenchen

    0 comentários

    mostrar mais comentários

    Conseguiu tocar?

    1 tocaram 1 ainda não

    Grave um vídeo tocando Esquilador e mande pra gente!

    00:00 / 00:00
    outros vídeos desta música
    repetir qualidade Automático
    Outros vídeos desta música
    00:00 / 00:00
    Automático
    OK