Cifra Club

Aprenda

Angel On My Shoulder

The 69 Eyes

Cifra: Principal (violão e guitarra)
tom: G
(intro)

E|-----------------------------------------------------------------------|
B|-----------------------------------------------------------------------|
G|---------------------------------------------------5-5-----------------|
D|---------------------------------------------------5-5---5-------------|
A|------5----------5--------------5----5-------------3-3-0-5-------------|
D|-//-0---7-6--0-5---7-0-6----0-5--------7-6----0-5--------5---0--6ph----|

E|-----------------------------------------------------------------------|
B|-----------------------------------------------------------------------|
G|---------------------------------------------------5-5-----------------|
D|---------------------------------------------------5-5---5-------------|
A|------5----------5--------------5----5-------------3-3-0-5-------------|
D|----0---7-6--0-5---7-0-6----0-5---(0)--7-6----0-5--------5---0--3b-----|

(verso)
E|------------------------------------------------------------------------|
B|------------------------------------------------------------------------|
G|--7-----10-------7-----7--------7-----10-------7--7--5--7----7-----10---|
D|--7-----10-------7-----7--------7-----10-------7--7--5--7----7-----10---|
A|--5-----8--------5-----5--------5-----8--------5--5--3--5----5-----8----|
D|------------------------------------------------------------------------|
             " I wanna feel you now..."

E|-------------------------------------------------------------------------|
B|-------------------------------------------------------------------------|
G|--7-----7--------7-----10-------7--7--5--7------5----------------5-------|
D|--7-----7--------7-----10-------7--7--5--7------5----5------5----5-------|
A|--5-----5--------5-----8--------5--5--3--5------3----5------5----3-------|
D|-----------------------------------------------------5------5------------|
                                                            " Don't wanna

E|----------------------------------------|
B|----------------------------------------|
G|--5---------------5---------------------|
D|--5----5----------5---------------------|
A|--3----5----------3---------------------|
D|-------5--------------------------------|
  see you cryin'..."

(intro)

(verso)

(refrão)

E|---------------------------------------------------------|
B|---------------------------------------------------------|
G|----0h2-0------------0h2-0------------0h2-0--------------| (2x)
D|--0---------3------0---------3------0---------3----------|
A|---------------------------------------------------------|
D|---------------------------------------------------------|

E|------------------------------------------------------------------------|
B|------------------------------------------------------------------------|
G|------7------7---------5-------5----------------------------------------| (2x)
D|----7---7--7---7-----5---5---5---5-------7-------7-----------5-------5--|
A|--5------5---------3-------3-----------7---7---7----7------5---5---5---5|
D|-------------------------------------7-------7-----------5-------5------|

(intro)

(verso)

(refrão)

(solo 2x)
E|-----------------------------------------------------------------|
B|--5---5-----5-----5-----5-----5-----5-----5------5----5---5------|
G|--7b8---b8----b8----b8----b8----b8----b8----b8r--7----7b8---b8---|
D|-----------------------------------------------------------------|
A|-----------------------------------------------------------------|
D|-----------------------------------------------------------------|

E|-----------------------------------------------------------------|
B|--5-----5------------6-------------8-----------------------------|
G|----b8----b8---------8b9----------10b11--------------------------|
D|-----------------------------------------------------------------|
A|-----------------------------------------------------------------|
D|-----------------------------------------------------------------|

(refrão 2x)

(outro)
E|----------------------------------------------------------------------|
B|----------------------------------------------------------------------|
G|----------------------------------------------------------------------|
D|-------------------7-----------------------3--------------------------|
A|-------5-----------7-----------5-----------3-----------5--------------|
D|-\-\-0---7-6---0---7---------0---7-6---0---3---------0---7-6---0-5----|

E|------------------------------------------------------------------------|
B|------------------------------------------------------------------------|
G|--5-5-------------------------------------------------------------------|
D|--5-5---5---------------------------------------------------------------|
A|--3-3-0-5--------------------5-------------------------5----------------|
D|--------5---0--6b----------0---7-6---0---7ph---------0---7-6---0---3ph--|

E|----------------------------------------|
B|----------------------------------------|
G|-------------------5-5------------------|
D|-------------------5-5---5--------------|
A|----5--------------3-3-0-5--------------|
D|--0---7-6---0-5----------5---0--3b------|
Compositor não encontrado.
Colaboração e revisão:
  • Mr.Pain
360 exibições
    • ½ Tom
    • A
    • Bb
    • B
    • C
    • Db
    • D
    • Eb
    • E
    • F
    • F#
    • G
    • Ab
  • Adicionar à lista

    0 comentários

    Ver todos os comentários

    Conseguiu tocar?

    0 Tocaram 0 Ainda não

    Grave um vídeo tocando Angel On My Shoulder e nos envie!

    00:00 / 00:00
    Outros vídeos desta música
    Repetir Qualidade Automático
    Outros vídeos desta música
    00:00 / 00:00
    Automático

    Cifra Club Pro

    Aproveite o Cifra Club com benefícios exclusivos e sem anúncios
    Cifra Club Pro
    Aproveite o Cifra Club com benefícios exclusivos e sem anúncios
    OK