Cifra Club

Come Together

The Beatles

Cifra: Versão 4 (violão e guitarra)
tom: C
Riff inicial e do meio dos versos.

e|----------------------|
B|----------6-----------|
G|----------5-----7-----|
D|------5/7-------------|
A|-5-5------------------|
E|----------------------|

(Também pode tocar os acordes Dm7 e A como Blues)

Dm7
Here come old flat top, He come grooving up slowly,

He got Joo Joo eyeball, He one holy roller 
        A               
He got  Hair down to his knee;  
G7
Got to be a joker, he just do what he please.

         (Riff 4x)
 
Dm7                     
He wear no shoe shine, he got toe jam football

He got monkey finger, he shoot co-ca cola
        A
He say, "I know you, you know me."  
G7
One thing I can tell you is you got to be free
     Bm        A    G    A
Come Together, Right now, over me

         (Riff 4x)

Dm7
He bag production, He got wal-rus gumboot

He got O-no sideboard, He one spinal cracker
       A
He got feet down below his knee
G7
Hold you in his armchair, you can feel his disease 
     Bm       A     G      A
Come together, right now,  over me

        (Riff 2x)

SOLO:
e|-------------------------|
B|-6-6-6-6-6-6-6-6---------|
G|-5-5-5-5-5-5-5-5--7-5-7--|    (4x)
D|------------------7-5-7--|
A|-------------------------|
E|-------------------------|

e|-10^------10-10^--8--10^------10^----10-10^--8---------------------|
B|------------------------------------------------10^------10-10^--8-|
G|-------------------------------------------------------------------|
D|-------------------------------------------------------------------|
A|-------------------------------------------------------------------|
E|-------------------------------------------------------------------|

         (Riff 4x)

Dm7
He roller coaster, he got early warning

He got muddy water, He one Mo-jo filter
        A
He say, " One and one and one is three."
G7
Got to be good looking 'cause he so hard to see 
     Bm       A      G     A
Come together, Right now,  over me.

         (Riff 4x)

SOLO FINAL:  cada |- ... -| equivale a 4 tempos

e|-10---|-----13/15--15/13--10-|-10---|-----------------|-10---|
B|------|----------------------|------|-----------------|------|
G|------|----------------------|------|-----10--12^--10-|------|
D|------|----------------------|------|-----------------|------|
A|------|----------------------|------|-----------------|------|
E|------|----------------------|------|-----------------|------| 

e|-----10--13/15/13--10-|-10^--|-----------------|-/19--|-----19--19/--13-|
B|----------------------|------|-----10--13^--10-|------|-----------------|
G|----------------------|------|-----------------|------|-----------------|
D|----------------------|------|-----------------|------|-----------------|
A|----------------------|------|-----------------|------|-----------------|
E|----------------------|------|-----------------|------|-----------------|

e|-19^--|-----19--22^--19-|-22^^--|-----19--22^--19-|-22^^--|-----13--19--13-|
B|------|-----------------|-------|-----------------|-------|----------------|
G|------|-----------------|-------|-----------------|-------|----------------|
D|------|-----------------|-------|-----------------|-------|----------------|
A|------|-----------------|-------|-----------------|-------|----------------|
E|------|-----------------|-------|-----------------|-------|----------------|

e|-19^--|-----------------|-10^--|-----10--13/15/13--10-|-10^--|
B|------|-----13----------|------|----------------------|------|
G|------|---------12^--10-|------|----------------------|------|
D|------|-----------------|------|----------------------|------|
A|------|-----------------|------|----------------------|------|
E|------|-----------------|------|----------------------|------|

Come together...


Composição de John Lennon / Paul McCartney
Colaboração e revisão:
  • Eduardo Temperine
57.740 exibições
    • ½ Tom
    • A
    • Bb
    • B
    • C
    • Db
    • D
    • Eb
    • E
    • F
    • F#
    • G
    • Ab
  • Adicionar à lista

    0 comentários

    Ver todos os comentários
    00:00 / 00:00
    Outros vídeos desta música
    Repetir Qualidade Automático
    Outros vídeos desta música
    00:00 / 00:00
    Automático
    Capítulos
    • Início
    • Dicas inciais
    • Tocando a música
    • Acorde da introdução
    • Tocando introdução
    • Dicas regulagem guitarra (Intro)
    • Ensinando introdução
    • Acordes da primeira parte
    • Tocando primeira parte
    • Regulagem guitarra (Primeira Parte)
    • Ensinando Primeira parte (Parte 1)
    • Ensinando Primeira parte (Parte 2)
    • Acordes do refrão
    • Tocando refrão
    • Regulagem guitarra e pedal (Refrão)
    • Ensinando ritmo do refrão
    • Dicas para o Solo
    • Tocando Solo
    • Regulagem da guitarra (Solo)
    • Ensinando solo (Parte 1)
    • Ensinando solo (Parte 2)
    • Dicas de repetição e solo final
    • Tocando Solo Final
    • Ensinando Solo Final (Parte 1)
    • Ensinando Solo Final (Parte 2)
    • Ensinando Solo Final (Parte 3)
    • Ensinando Solo Final (Parte 4)
    • Ensinando Solo Final (Parte 5)
    • Ensinando Solo Final (Parte 6)
    • Ensinando Solo Final (Parte 7)
    • Ensinando Solo Final (Parte 8)
    • Ensinando Solo Final (Parte 9)
    • Ensinando Solo Final (Parte 10)
    • Encerramento

    Cifra Club Pro

    Aproveite o Cifra Club com benefícios exclusivos e sem anúncios
    Cifra Club Pro
    Aproveite o Cifra Club com benefícios exclusivos e sem anúncios
    OK