Cifra Club

Aprenda

Something

The Beatles

Cifra: Versão 5 (violão e guitarra)
Tom: A
(intro) F Eb G C

E |--------------------------|
B |-10--13r12--10--11--12----|
G |--------------------------|

C                          C7+
Something in the way she moves
C7                            F      C/E      D|--3--2--0----
    Attracts me like no other lover
D                D7      G  Am7  G/B          B|----8-5---5----
Something in the way she woos me              G|--7-----7-----

  Am                       Am7+         B|--3-3-4b5----------
I don't want to leave her now
    Am7                 D7/9           B|--4h5b6-------
You know I believe and how

E |-----------------------------|
B |-10--13r12--10--11--12--13---|
G |-----------------------------|

C                          C7+
Somewhere in her smile she knows
C7                             F     C/E
    That I don't need no other lover
D                 D7          G  Am7 G/B
Something in her style that shows me

  Am                       Am7+
I don't want to leave her now
    Am7                D7/9
You know I believe and how

E |-------------------------------|
B |-10--13r12--10--11--12--14~~~~-|
G |-------------------------------|

A                C#m             F#m  F#m7
   You're asking me will my love grow
        D     G        A    G#m G F#m F E
I don't know, I don't know

A              C#m              F#m   F#m7
    You stick around and it may show
        D     G       C    G/B Am G F E C
I don't know, I don't know

(solo)
  C          C7+                 C7
E |-----------------------------------------------------------|
B |-------8----------8b10-10r8----------8h10-8--10/11--13-13--|
G |---7h9---9----7h9------------9----7h9----------------------|
D |-----------------------------------------------------------|
A |-----------------------------------------------------------|
E |-----------------------------------------------------------|

              F                               E
E |------------------------------------------------------------|
B |--13b15r13--15b17r15--13--10---------13-13------------------|
G |-------------------------------12/14--------------12-12-----|
D |--------------------------------------------12/14-----------|
A |------------------------------------------------------------|
E |------------------------------------------------------------|

    D             D7         G
E |--------------------------------------------------------------|
B |--------------------------------------------------------------|
G |-------------------11-11---14b16r14---14b16r14--14b16r14--12--|
D |----------------12--------------------------------------------|
A |--12----14--12------------------------------------------------|
E |--------------------------------------------------------------|

                              Am
E |--------------------------------------------------------------|
B |------14-13-12/16--15-14--------------------------------------|
G |--12----------------------------------------------------------|
D |----------------------------12b14r12--12b14r12--12b14r12--10--|
A |--------------------------------------------------------------|
E |--------------------------------------------------------------|

    Am7+
E |-----------------------------------------------|
B |-----------------------------------------------|
G |-----------------------------------------------|
D |--12b14r12--12b14r12--12b14r12--12b14r12--10---|
A |-----------------------------------------------|
E |-----------------------------------------------|

    Am7                          D9                  C
E |---------------------------------10/12-10-8h10--8-------|
B |-------------------------------8-------------------10---|
G |---------------------------7/9--------------------------|
D |--12b14r12--12b14r12--10--------------------------------|
A |--------------------------------------------------------|
E |--------------------------------------------------------|

E |-------------------------------|
B |--10--13r12--10--11--12--13----|
G |-------------------------------|
D |-------------------------------|
A |-------------------------------|
E |-------------------------------|

C                          C7+
Something in the way she knows
C7                           F           C/E
     And all I have to do is think of her
D                D7         G   Am7  G/B
Something in the things she shows me

Am                         Am7+
I don't want to leave her now
    Am7                 D7/9       C
You know I believe and how

                           A                       C
E |------------------------------------16-15-14--|
B |--10--13r12--10--11--12--14------14-----------|
G |----------------------------------------------|

                           C
E |------------------------------------|
B |--10--13r12--10--11--12--13---------|
G |------------------------------------|
Composição de George Harrison
Colaboração e revisão:
  • Johnathan Meira
82.500 exibições
  • Simplificar cifra
    • ½ Tom
    • A
    • Bb
    • B
    • C
    • Db
    • D
    • Eb
    • E
    • F
    • F#
    • G
    • Ab
  • Adicionar à lista

    0 comentários

    Mostrar mais comentários
    00:00 / 00:00
    outros vídeos desta música
    repetir qualidade Automático
    Outros vídeos desta música
    00:00 / 00:00
    Automático
    Capítulos
    • Início
    • Tocando a música
    • Configuração dos Efeitos
    • Dicas: Uso dos Captadores, Tones e Volume
    • Tocando Solo da Introdução
    • Ensinando Solo da Introdução
    • Acordes da Primeira Parte
    • Tocando Primeira Parte
    • Ensinando Primeira Parte
    • Tocando Segunda Parte
    • Ensinando Segunda Parte
    • Tocando Solo da Introdução - Variação
    • Ensinando Solo da Introdução - Variação
    • Acordes da Terceira Parte
    • Tocando Terceira Parte
    • Ensinando Ritmo da Terceira Parte
    • Tocando Solo
    • Ensinando Solo
    • Tocando Final
    • Ensinando Final
    • Encerramento

    Cifra Club Pro

    Aproveite o Cifra Club com benefícios exclusivos e sem anúncios
    7 dias grátis
    Cifra Club Pro
    Aproveite o Cifra Club com benefícios exclusivos e sem anúncios
    7 dias grátis
    OK