Cifra Club

Riders On The Storm

The Doors

Tab de baixo: Principal
exibições 22.699
    intro                      repeat several times  (body of song)                         
G---------------------------||----------------------------||
D---2-----------------------||*--------------------------*||
A------2-----2-----0--4--0--||*-----2-----2-----0--4--0--*||
E---------3-----0-----------||---0-----3-----0------------||
                                                                           

    unto this land we're born...         into this world we're thrown..                                                         
G---------------------------------------------------------------
D----------------------------------------2----------------------
A---0-0---/12-12---0-0---10/12-10/12--------2-----2-----0--4--0-
E----------------------------------------------3-----0----------
                                                                           

                             like a dog without a bone...                                   
G--------------------------------------------------------
D---------------------------12--12--12--12--12-10-10---
A------2-----2-----0--4--0-------------------------------
E---0-----3-----0----------------------------------------
                                                                           

          riders on the storm...  repeat several times (body)                                       
G---||--------------------------||--------------------------||
D---||*--2----------------------||*------------------------*||
A---||*-----2-----2-----0--4--0-||*---2-----2-----0--4--0--*||
E---||---------3-----0----------||-0-----3-----0------------||



_______________________________________________________
Contribuição: Cristina(crisgs@msn.com)

0 comentários

    mostrar mais comentários

    Conseguiu tocar?

    2tocaram0ainda não

    Grave um vídeo tocando Riders On The Storm e mande pra gente!

    00:00 / 00:00
    outros vídeos desta música
    repetirqualidadeautomática
    Outro vídeos desta música
      00:00 / 00:00
      automática
      OK