Cifra Club

Aprenda

Santa Monica

Theory Of A Deadman

Cifra: Versão 2 (violão e guitarra)
Tom: C
You need To figure out the struming patterns on the chords but no worries it
ain't to hard. Keep On Keepen On

INTRO
e|---------------0-----------------3------------------2-----------------3--|
B|--12-----------0----12-----------3-----12-----------3----12-----------3--|
G|-----12---7----0-------12---7----0--------12---7----2-------12---7----0--|
D|--------7------2----------7------0-----------7------0----------7------2--|
A|---------------2-----------------2------------------0-----------------3--|
E|---------------0-----------------3---------------------------------------|


VERSE x4
e|-----0-------0-------0-----------------------------------------------------|
B|-----0-------0-------0-----------------------------------------------------|
G|-----0-------4-------0--7-7-7-7-5-5-5-5------------------------------------| 
D|-----2-----4-4-------5--7-7-7-7-5-5-5-5------------------------------------|
A|---2-2---2---2-----5-5--5-5-5-5-3-3-3-3------------------------------------|
E|-0---0-------0---3---3-----------------------------------------------------|

CHORUS x2
e|--0-----------------3-----------------2-----------------3------------------|
B|--0-3--------3------3-3--------3------3-3--------3------3-3--------3-------|
G|--0---4-4--4---4-4--0---4-4--4---4-4--2---4-4--4---4-4--0---4-4--4---4-4---|
D|--2-----------------0-----------------0-----------------2------------------|
A|--2-----------------2-----------------0-----------------3------------------|
E|--0-----------------3------------------------------------------------------|

BRIDGE X4
e|---------------------------------------------------------------------------|
B|---------------------------------------------------------------------------|
G|---------------------------------------------------------------------------| 
D|-2--2--4--4--5--5--7-7--2--2--4--4--5--5--8--8-----------------------------|
A|-2--2--4--4--5--5--7-7--2--2--4--4--5--5--8--8-----------------------------|
E|-0--0--2--2--3--3--5-5--0--0--2--2--3--3--6--6-----------------------------|


  Song Order:
Intro  X1
Verse  X4
Chorus X2
Verse  X4
Chorus X2
Bridge X4
Chorus X3
Intro  X1
Composição de Dave Brenner / Dean Back / Tyler Connolly
825 exibições
    • ½ Tom
    • A
    • Bb
    • B
    • C
    • Db
    • D
    • Eb
    • E
    • F
    • F#
    • G
    • Ab
  • Adicionar à lista

    0 comentários

    Mostrar mais comentários

    Conseguiu tocar?

    0 Tocaram 0 Ainda não

    Grave um vídeo tocando Santa Monica e mande pra gente!

    00:00 / 00:00
    outros vídeos desta música
    repetir qualidade Automático
    Outros vídeos desta música
    00:00 / 00:00
    Automático

    Cifra Club Pro

    Aproveite o Cifra Club com benefícios exclusivos e sem anúncios
    7 dias grátis
    Cifra Club Pro
    Aproveite o Cifra Club com benefícios exclusivos e sem anúncios
    7 dias grátis
    OK