Cifra Club

Aprenda

Santa Monica

Theory Of A Deadman

Cifra: Versão 5 (violão e guitarra)
Tom: C
                   SANTA MONICA - THOERY OF A DEADMAN

Tabbed by: Linkinparoso

Tuning: Standard

I am not completely sure, But with this you can make an improvisation to find the 
sound. This is a very nice song and is very easy play it.

   INTRO

  GTR: 1
e|-------------12-|-------------12-|-------------12-|------------12-|
B|--12--8--10-----|--12--8--10-----|--12--8--10-----|-12--8--10-----|
G|----------------|----------------|----------------|---------------|
D|----------------|----------------|----------------|---------------|
A|----------------|----------------|----------------|---------------|
E|----------------|----------------|----------------|---------------|


  GTR: 2
e|-------0--------|-------3--------|--------3-------|--------3------|
B|-------0--------|-------3--------|--------2-------|--------3------|
G|-------0--------|-------0--------|--------3-------|--------0------|
D|-------2--------|-------0--------|--------0-------|--------2------|
A|-------2--------|-------2--------|----------------|--------3------|
E|-------0--------|-------3--------|----------------|---------------|


   VERSE

  GTR: 1
e|----------|----------|----------|----------|  x4
B|----------|----------|----------|----------|
G|----4-4---|----4-4---|----4-4---|----4-4---|
D|--------3-|--------3-|--------3-|--------3-|
A|----------|----------|----------|----------|
E|----------|----------|----------|----------|


  GTR: 2
e|----0-----|----3-----|-----3----|-----3----|  X4
B|----0-----|----3-----|-----2----|-----3----|
G|----0-----|----0-----|-----3----|-----0----|
D|----2-----|----0-----|-----0----|-----2----|
A|----2-----|----2-----|----------|-----3----|
E|----0-----|----3-----|----------|----------|
      .          .           .          .

    CHORUS

And I remember the day...
  GTR: 1
e|-----------|-----------|-----------|-----------|
B|-----0--3--|-----0--3--|-----0--3--|-----0--3--|
G|--0--------|--0--------|--0--------|--0--------|
D|-----------|-----------|-----------|-----------|
A|-----------|-----------|-----------|-----------|
E|-----------|-----------|-----------|-----------|


  GTR: 2
e|-----0-----|----3------|------3----|------3----|
B|-----0-----|----3------|------2----|------3----|
G|-----0-----|----0------|------3----|------0----|
D|-----2-----|----0------|------0----|------2----|
A|-----2-----|----2------|-----------|------3----|
E|-----0-----|----3------|-----------|-----------|


And I remember the time...  Here I heard another Guitar
  GTR: 3
e|-------------12-|-------------12-|-------------12-|------------12-|
B|--12--8--10-----|--12--8--10-----|--12--8--10-----|-12--8--10-----|
G|----------------|----------------|----------------|---------------|
D|----------------|----------------|----------------|---------------|
A|----------------|----------------|----------------|---------------|
E|----------------|----------------|----------------|---------------|


  INTERLUDE


I wanted more than this...
  GTR: 1
e|-------------------------|--------------------------|   x4
B|-------------------------|--------------------------|
G|-------------------------|--------------------------|
D|--2-2---4-4---5-5---7-7--|--2-2---4-4---5-5---8-8---|
A|--2-2---4-4---5-5---7-7--|--2-2---4-4---5-5---8-8---|
E|--0-0---2-2---3-3---5-5--|--0-0---2-2---3-3---6-6---|


  GTR: 2
e|--0~----------------------|--0~---------------------|
B|--0~----------------------|--0~---------------------|
G|--0~----------------------|--0~---------------------|
D|--2~----------------------|--2~---------------------|
A|--2~----------------------|--2~---------------------|
E|--0~----------------------|--0~---------------------|


  END

GTR: 1
e|-----------|-----------|-----------|-----------|
B|-----0--3--|-----0--3--|-----0--3--|-----0--3--|
G|--0--------|--0--------|--0--------|--0--------|
D|-----------|-----------|-----------|-----------|
A|-----------|-----------|-----------|-----------|
E|-----------|-----------|-----------|-----------|


  GTR: 2
e|-----0-----|----3------|------3----|------3----|
B|-----0-----|----3------|------2----|------3----|
G|-----0-----|----0------|------3----|------0----|
D|-----2-----|----0------|------0----|------2----|
A|-----2-----|----2------|-----------|------3----|
E|-----0-----|----3------|-----------|-----------|


  GTR: 3
e|-------------12-|-------------12-|-------------12-|------------12-|
B|--12--8--10-----|--12--8--10-----|--12--8--10-----|-12--8--10-----|
G|----------------|----------------|----------------|---------------|
D|----------------|----------------|----------------|---------------|
A|----------------|----------------|----------------|---------------|
E|----------------|----------------|----------------|---------------|
Composição de Dave Brenner / Dean Back / Tyler Connolly
272 exibições
    • ½ Tom
    • A
    • Bb
    • B
    • C
    • Db
    • D
    • Eb
    • E
    • F
    • F#
    • G
    • Ab
  • Adicionar à lista

    0 comentários

    Mostrar mais comentários

    Conseguiu tocar?

    0 Tocaram 0 Ainda não

    Grave um vídeo tocando Santa Monica e mande pra gente!

    00:00 / 00:00
    outros vídeos desta música
    repetir qualidade Automático
    Outros vídeos desta música
    00:00 / 00:00
    Automático

    Cifra Club Pro

    Aproveite o Cifra Club com benefícios exclusivos e sem anúncios
    7 dias grátis
    Cifra Club Pro
    Aproveite o Cifra Club com benefícios exclusivos e sem anúncios
    7 dias grátis
    OK