Cifra Club

Aprenda

Domingo

Titãs

Cifra: Versão 2 (violão e guitarra)
tom: G
Domingo
Titãs
                   
e|--------------------------------------------------------------|
B|--------------------------------------------------------------|
G|--------------------------------------------------------------|
D|--------------------------------------------------------------|
A|2h3p2--------------0-2---------2-2-3-2--------------0-2-------|
E|------3-0-3--3-0-3-----3---0-3---------3-0-3--3-0-3-----3-0-0-|

e|------------------------------------------------------------|
B|------------------------------------------------------------|
G|------------------------------------------------------------|
D|------------------------------------------------------------|
A|2h3p2--------------0-2---------2-2-3-2-------------3-2-0----|
E|------3-0-3--3-0-3-----3---0-3---------3-0-3--3-0---------3-|

e|--------------------------------------------------------------|
B|--------------------------------------------------------------|
G|--------------------------------------------------------------|
D|--------------------------------------------------------------|4x
A|2h3p2--------------0-2---------2-2-3-2--------------0-2-------|
E|------3-0-3--3-0-3-----3---0-3---------3-0-3--3-0-3-----3-0-0-|

|---------------------------------------------------------------------|
|---------------------------------------------------------------------|
|---------------------------------------------------------------------|
|---------------------------------------------------------------------|
|2h3p2-----3-3p2-0-2-3-33p2--0-5--3-3p2-0-2-3-------3p2------2----5-5-|
|------3-0-------------------------------------33p0------3p0---3--3-3-|

e|--------------------------------------------------------------|
B|--------------------------------------------------------------|
G|--------------------------------------------------------------|
D|--------------------------------------------------------------|4x
A|2h3p2--------------0-2---------2-2-3-2--------------0-2-------|
E|------3-0-3--3-0-3-----3---0-3---------3-0-3--3-0-3-----3-0-0-|

|---------------------------------------------------------------------|
|---------------------------------------------------------------------|
|---------------------------------------------------------------------|
|---------------------------------------------------------------------|
|2h3p2-----3-3p2-0-2-3-33p2--0-5--3-3p2-0-2-3-------3p2------2----5-5-|
|------3-0-------------------------------------33p0------3p0---3--3-3-|

|---------------------------------------|
|--------8---------8------------13-12-8-|
|--7--9------7--9------797--7-----------|
|-------------------------------10-9--5-|4x
|---------------------------------------|
|---------------------------------------|

|-------------------------------------------------------|
|8-8-8---------------------8-8-8------------------------|
|-------9p7-----------------------9p7-------------------|
|-----------9p7-7-7/9------------------9p7-7/9--\5------|2x
|-------------------------------------------------------|
|-------------------------------------------------------|

|-------------------------------\\----151515-12-----------------------|
|-------8-----------------------\\--------------15-12-----------------|
|-7b9~----9b7--7b9-99p7---9-7---\\--------------------14-14/16--12----|
|-----------------------9-------\\------------------------------------|
|---------------------------------------------------------------------|
|---------------------------------------------------------------------|

|----------------------------------------------------|
|----------------------------------------------------|
|----------------------------------------------------|
|----------------------------------------------------|
|---------0-2---------2-2-3-2--------------0-2-------|
|---3-0-3-----3---0-3---------3-0-3--3-0-3-----3-0-0-|

e|--------------------------------------------------------------|
B|--------------------------------------------------------------|
G|--------------------------------------------------------------|
D|--------------------------------------------------------------|4x
A|2h3p2--------------0-2---------2-2-3-2--------------0-2-------|
E|------3-0-3--3-0-3-----3---0-3---------3-0-3--3-0-3-----3-0-0-|

   final
|-------------------------------------------------------------------------------|
|-------------------------------------------------------------------------------|
|-12---12-12-12---12---12-12-12---12---12-12-12---12-12-12---12----9-9-9--9-x-x-|
|-12---12-12-12---12---12-12-12---12---12-12-12---12-12-12---12----9-9-9--9-x-x-|até o final
|-8----8--8--8----8----8--8--8----8----8--8--8----8--8--8----8-----7-7-7--7-x-x-|
|------------------------------------------------------------------0-0-0--0-0-0-|



Qualquer erro encontrado, eu ficarei muito grato em receber, para posteriormente corrigir e postar a tab correta.
Composição de Sérgio Britto / Toni Bellotto
Colaboração e revisão:
  • Fabiano
25.586 exibições
    • ½ Tom
    • A
    • Bb
    • B
    • C
    • Db
    • D
    • Eb
    • E
    • F
    • F#
    • G
    • Ab
  • Adicionar à lista

    0 comentários

    Ver todos os comentários
    00:00 / 00:00
    Outros vídeos desta música
    Repetir Qualidade Automático
    Outros vídeos desta música
    00:00 / 00:00
    Automático

    Cifra Club Pro

    Aproveite o Cifra Club com benefícios exclusivos e sem anúncios
    Cifra Club Pro
    Aproveite o Cifra Club com benefícios exclusivos e sem anúncios
    OK