Cifra Club

Se a Tua Voz Ouvir

Toque No Altar

Cifra: Principal
exibições 175.928
Tom: D
Intro:     A4  A     E/G#     D  A/C#     Bm  E4

A        E/G#
Se atentamente eu ouvir
    F#m       D9
A Tua voz e obedecer
A              E/G#
Seguir os teus passos
     Bm          E4 E
E jamais me desviar
A            E/G#
Se o meu coração se achar
        F#m      D9
Sempre puro e fiel a ti
A             E/G#
Se a Tua vontade
        Bm           E4 E
Sempre for o meu prazer

Ponte:
Bm    A/C#        D    F#m  E  Bm
O deserto então será manancial
       A/C#      D
Sem medidas fluirão

   F#m  E   A4    A  E/G#  F#m
As Tu...as ben...çãos     sobre mim
             Bm
Mais que abundantes serão
  A/C#       E4                  E
E eu viverei tudo o que tens pra mim
       A4    A  E/G#     F#m
Da Tua me...sa sempre eu comerei
        Bm              A/C#
E me fartarei do melhor de Tuas mãos
   E4           E         A
Se a Tua voz ouvir e obedecer

Solo:
E|---------------------------------------------------
B|-------------------14--15-14~----------------------
G|-----------14--16----------------------------------
D|-----13/14-----------------------------------------
A|---------------------------------------------------
E|---------------------------------------------------

E|---------------------------------------------------
B|-------------------14--15b17-15--14~---------------
G|-----------14--16----------------------------------
D|------14-------------------------------------------
A|---------------------------------------------------
E|---------------------------------------------------

E|---------------------------------------------------
B|-------------------14--15/17-14--------------------
G|----------14---16----------------------------------
D|-----14--------------------------------------------
A|---------------------------------------------------
E|---------------------------------------------------

E|---------------------------------------------------
B|---------------------------------------------------
G|---------14---18b--14------------------------------
D|-----14---------------14---------------------------
A|---------------------------------------------------
E|---------------------------------------------------

E|---------------------------------------------------
B|-------------------14--15-14~----------------------
G|-----------14--16----------------------------------
D|-----13/14-----------------------------------------
A|---------------------------------------------------
E|---------------------------------------------------

E|---------------------------------------------------
B|-------------------14--15b17-15--14~---------------
G|-----------14--16----------------------------------
D|------14-------------------------------------------
A|---------------------------------------------------
E|---------------------------------------------------

E|---------------------------------------------------
B|-------------------14--15/17-14--------------------
G|----------14---16----------------------------------
D|-----14--------------------------------------------
A|---------------------------------------------------
E|---------------------------------------------------

E|----------------14---17b~--17-16------12--------------------
B|---------14-16---------------------------12-----------------
G|----/14---------------------------------------14-13-11------
A|------------------------------------------------------------
E|------------------------------------------------------------
Acordes para:

    0 comentários

      mostrar mais comentários

      Conseguiu tocar?

      7tocaram0ainda não

      Grave um vídeo tocando Se a Tua Voz Ouvir e mande pra gente!

      00:00 / 00:00
      outros vídeos desta música
      repetirqualidadeautomática
      Outro vídeos desta música
        00:00 / 00:00
        automática
        OK