Cifra Club

Desire

U2

Tab de baixo: Principal
G|----|-----------|-----------|-----------|-----------|
D|----|-----------|-----------|-----------|-----------|
A|----|5----------|5----------|5----------|5----------|
E|----|--5-0-5-05-|--5-0-5-05-|--5-0-5-05-|--5-0-5-05-|

G|-----------|-----------|-----------|-----------|----------------|
D|-----------|-----------|-----------|-----------|----------------|
A|5----------|5----------|5----------|5----------|5-5-555---------|
E|--5-0-5-05-|--5-0-5-05-|--5-0-5-05-|--5-0-5-05-|--------5-5-555-|

G|-----------|-----------|-----------|-----------|-----------|
D|-----------|-----------|-----------|-----------|-----------|
A|5----------|5----------|5----------|5----------|5----------|
E|--5-0-5-05-|--5-0-5-05-|--5-0-5-05-|--5-0-5-05-|--5-0-5-05-|

G|-----------|-----------|-----------|-----------|-----------|
D|-----------|-----------|-----------|-----------|-----------|
A|5----------|5----------|5----------|5----------|5----------|
E|--5-0-5-05-|--5-0-5-05-|--5-0-5-05-|--5-0-5-05-|--5-0-5-05-|

G|----------------|-----------|-----------|-----------|-----------|
D|----------------|-----------|-----------|-----------|-----------|
A|5-5-555---------|5----------|5----------|5----------|5----------|
E|--------5-5-555-|--5-0-5-05-|--5-0-5-05-|--5-0-5-05-|--5-0------|

G|----|----|----------------|-----------|-----------|-----------|-----------|
D|----|----|----------------|-----------|-----------|-----------|-----------|
A|----|----|5-5-555---------|5----------|5----------|5----------|5----------|
E|----|----|--------5-5-555-|--5-0-5-05-|--5-0-5-05-|--5-0-5-05-|--5-0-5-05-|

G|-------------------------------------------------------------|
D|-------------------------------------------------------------|
A|5-5-5-5-5-5-5-5-----------------5-5-5-5-5-5-5-5--------------|
E|----------------5-5-5-5-5-5-5-5-----------------0------------|

G|-----------|-----------|-----------|-----------|-----------|-----------|
D|-----------|-----------|-----------|-----------|-----------|-----------|
A|5----------|5----------|5----------|5----------|5----------|5----------|
E|--5-0-5-05-|--5-0-5-05-|--5-0-5-05-|--5-0-5-05-|--5-0-5-05-|--5-0-5-05-|

G|-----------|-----------|-----------|-----------|-----------|-----------|
D|-----------|-----------|-----------|-----------|-----------|-----------|
A|5----------|5----------|5----------|5----------|5----------|5----------|
E|--5-0-5-05-|--5-0-5-05-|--5-0-5-05-|--5-0-5-05-|--5-0-5-05-|--5-0-5-05-|

G|-----------|-----------|----------------|-----------|-----------|
D|-----------|-----------|----------------|-----------|-----------|
A|5----------|5----------|5-5-555---------|5----------|5----------|
E|--5-0-5-05-|--5-0-5-05-|--------5-5-555-|--5-0-5-05-|--5-0-5-05-|

G|-----------|-----------|-----------|-----------|-----------|-----------|
D|-----------|-----------|-----------|-----------|-----------|-----------|
A|5----------|5----------|5----------|5----------|5----------|5----------|
E|--5-0-5-05-|--5-0-5-05-|--5-0-5-05-|--5-0-5-05-|--5-0-5-05-|--5-0-5-05-|

G|-----------|-----------|-----------|-----------|-----------|-----------|
D|-----------|-----------|-----------|-----------|-----------|-----------|
A|5----------|5----------|5----------|5----------|5----------|5----------|
E|--5-0-5-05-|--5-0-5-05-|--5-0-5-05-|--5-0-5-05-|--5-0-5-05-|--5-0-5-05-|

G|-----------|-----------|-----------|-----------|
D|-----------|-----------|-----------|-----------|
A|5----------|5----------|5----------|5----------|
E|--5-0-5-05-|--5-0-5-05-|--5-0-5-05-|--5-0------|


_______________________________________________________
Contribuição: Marcus Vinicius(marcus_vvp@hotmail)
exibições 6.194

0 comentários

mostrar mais comentários

Conseguiu tocar?

0 tocaram 0 ainda não

Grave um vídeo tocando Desire e mande pra gente!

00:00 / 00:00
outros vídeos desta música
repetir qualidade Automático
Outros vídeos desta música
00:00 / 00:00
Automático
OK