Cifra Club

Sunday Bloody Sunday

U2

Cifra: Principal (violão e guitarra)
Tom: F# (forma dos acordes no tom de G) Afinação: Eb Ab Db Gb Bb Eb
[Intro]  Bm  D  G

        Bm         D          G
E|------2-----------2-----------0-----------0-------|
B|----3---3-------3---3-------3---3-------3---3-----|
G|--4-------4---2-------2---0-------0---0-------0---|
D|--------------------------------------------------|
A|--------------------------------------------------|
E|--------------------------------------------------|

Bm         D               G
 I can't believe the news today
Bm         D               G
 I can't close my eyes and make it go away

D          Em
 How long, how long must we sing this song?
D              Em
 How long, how long?

  B5  D5  G5                   B5 D5 G5
Tonight we can be as one, tonight

B5       D5             G5
 Broken bottles under children's feet
Bm           D             G
 And body strewn across a dead-end street
Bm            D               G
 But I won't heed the battle call
Bm           D                G
 It puts my back up, puts my back up against the wall

Bm   D          G
 Sunday, bloody Sunday
Bm   D          G
 Sunday, bloody Sunday

        Bm         D          G
E|------2-----------2-----------0-----------0-------|
B|----3---3-------3---3-------3---3-------3---3-----|
G|--4-------4---2-------2---0-------0---0-------0---|
D|--------------------------------------------------|
A|--------------------------------------------------|
E|--------------------------------------------------|

Sunday, bloody Sunday (Sunday, bloody Sunday)
E|----------------------------------|         Eb|---------13--12-------------------|
B|------------------(7)-------------|         Bb|---13--13-------13----------------|
G|-----(7)--(7)-(5)----(7)----------|    ou   Gb|-14-------------------------------|
D|--(7)-----------------------------|         Db|----------------------------------|
A|----------------------------------|         Ab|----------------------------------|
E|----------------------------------|         Eb|----------------------------------|

( B5  D5  G5 )
( B5  D5  G5 )
( B5  D5  G5 )
( B5  D5  G5 )

B5        D5             G5
 And the battles just begun
Bm             D                 G
 There's many lost but tell me: who has won?
Bm             D              G
 The trenches dug within our hearts
Bm              D                  G
 And mother's children, brothers, sisters torn apart

Bm   D          G
 Sunday, bloody Sunday

Bm   D          G
 Sunday, bloody Sunday

D         Em
 How long, how long must we sing this song?
D              Em
 How long, how long?

  B5  D5  G5                   B5 D5 G5
Tonight we can be as one, tonight

[Solo]

E|--12-12-12h10-10-10-10-12-12-12h10-10-10-10-------------------------------------------|
B|---0--0--0-----0--0--0--0--0--0-----0--0--0-12-12-12h10-10-10-10-12-12-12h10-10-10-10-|
G|---------------------------------------------0--0--0-----0--0--0--0--0--0-----0--0--0-|
D|--------------------------------------------------------------------------------------|
A|--------------------------------------------------------------------------------------|
E|--------------------------------------------------------------------------------------|

E|--12-12-12h10-10-10-10-12-12-12h10-10-10-10-------------------------------------------|
B|---0--0--0-----0--0--0--0--0--0-----0--0----12-12-12h10-10-10-10-12-12-12h10-10-10-10-|
G|---------------------------------------------0--0--0-----0--0--0--0--0--0-----0--0--0-|
D|--------------------------------------------------------------------------------------|
A|--------------------------------------------------------------------------------------|
E|--------------------------------------------------------------------------------------|

E|---0--0--0-0-0-0-0-0-0-0-0-0-0-0-0-0-0-0-0-0-0-0-0-0-0-|
B|--10-10-10h8-8-8h7-7-7h5-5-5h3-3-3-3h5h3h2-2-2-2h3h2h0-|
G|-------------------------------------------------------|
D|-------------------------------------------------------|
A|-------------------------------------------------------|
E|-------------------------------------------------------|

E|---0-0-0-0-0-0-0-0-0-0-0-0-0-0-0-0-0-0--0--0--0--0--0--0--0--0--0-|
B|---0-0-0h2-2-2h3-3-3h5-5-5h7-7-7h8-8-8h10-10-10h15-15-14-10-12-12-|
G|------------------------------------------------------------------|
D|------------------------------------------------------------------|
A|------------------------------------------------------------------|
E|------------------------------------------------------------------|

                Bm  D  G
Wipe your tears away
                Bm  D  G
Wipe your tears away
                Bm  D  G
Wipe your tears away
                Bm  D  G
Wipe your tears away
                Bm  D  G
Wipe your tears away

Bm   D           G
 Sunday, bloody Sunday
Bm   D           G
 Sunday, bloody Sunday
Bm   D           G
 Sunday, bloody Sunday
Bm   D           G
 Sunday, bloody Sunday

Sunday, bloody Sunday (Sunday, bloody Sunday)
E|----------------------------------|         Eb|-----------13--12-----------------|
B|------------------(7)-------------|         Bb|----13--13--------13--------------|
G|-----(7)--(7)-(5)----(7)----------|    ou   Gb|-14-------------------------------|
D|--(7)-----------------------------|         Db|----------------------------------|
A|----------------------------------|         Ab|----------------------------------|
E|----------------------------------|         Eb|----------------------------------|

( B5  D5  G5 )
( B5  D5  G5 )
( B5  D5  G5 )
( B5  D5  G5 )

B5          D5            G5
 And it is true we are immune
B5          D5            G5
 When fact is fiction and TV reality
B5          D5            G5
 And today the millions cry
B5          D5            G5
 We eat and drink while they die
B5          D5            G5
 The real battle just begun
B5          D5            G5
 To claim the victory Jesus won
B5        D5         G5
On a Sunday, bloody Sunday
B5    D5        G5
 Sunday, bloody Sunday
exibições 607.654

0 comentários

mostrar mais comentários

Conseguiu tocar?

50 tocaram 2 ainda não

Grave um vídeo tocando Sunday Bloody Sunday e mande pra gente!

00:00 / 00:00
outros vídeos desta música
repetir qualidade Automático
Outros vídeos desta música
00:00 / 00:00
Automático
OK