Enviar cifraEntrar

Sunday Bloody Sunday

U2

Cifra: Principal
exibições 531.308
Tom: G Afinação: Eb Ab Db Gb Bb Eb
Intro:  Bm  D  G


E|----2-----2----0---0-------|          E|------------------------------|
B|---3-3---3-3--3-3-3-3------|          B|-----8------8------6-----6----|
G|--4-----2----0---0---0-----|    ou    G|----8-8----8-8----8-8---8-8---|
D|---------------------------|          D|--10------8------6-----6------|
A|---------------------------|          A|------------------------------|
E|---------------------------|          E|------------------------------|


Bm         D               G
 I can't believe the news today
Bm         D               G
 I can't close my eyes and make it go away

D          Em
 How long, how long must we sing this song?
D              Em
 How long, how long?

  B5  D5  G5                   B5 D5 G5
Tonight we can be as one, tonight

B5       D5             G5
 Broken bottles under children's feet
Bm           D             G
 And body strewn across a dead-end street
Bm            D               G
 But I won't heed the battle call
Bm           D                G
 It puts my back up, puts my back up against the wall

Bm   D          G
 Sunday, bloody Sunday (2x)

(Intro)

Sunday, bloody Sunday (Sunday, bloody Sunday)

E|----------------------------------|         e|---------13--12-------------------|
B|------------------(7)-------------|         B|---13--13-------13----------------|
G|-----(7)--(7)-(5)----(7)----------|    ou   G|-14----------------12-------------|
D|--(7)-------------------(7)-------|         D|----------------------------------|
A|----------------------------------|         A|----------------------------------|
E|----------------------------------|         E|----------------------------------|


( B5  D5  G5 ) (4x)

B5        D5             G5
 And the battles just begun
Bm             D                 G
 There's many lost but tell me: who has won?
Bm             D              G
 The trenches dug within our hearts
Bm              D                  G
 And mother's children, brothers, sisters torn apart

Bm   D          G
 Sunday, bloody Sunday  (2x)

D         Em
 How long, how long must we sing this song?
D              Em
 How long, how long?

  B5  D5  G5                   B5 D5 G5
Tonight we can be as one, tonight

Solo:


E|-----------------------------------------------------------|
B|-15-15--13-13---15-15--13-13--10-10--8-8--10-10--8-8-------|
G|-14-14--12-13---14-14--12-12--9--9---7-7--9--9---7-7-------|
D|-----------------------------------------------------------|
A|-----------------------------------------------------------|
E|-----------------------------------------------------------|


E|---------------------------------------------------------------------------------------|
B|-15-15--13-13---15-15--13-13--10-10--8-8--10-10--8-8---8-8-8--6-6-6--5-5-5--3-3-3------|
G|-14-14--12-13---14-14--12-12--9--9---7-7--9--9---7-7---7-7-7--5-5-5--4-4-4--2-2-2------|
D|---------------------------------------------------------------------------------------|
A|---------------------------------------------------------------------------------------|
E|---------------------------------------------------------------------------------------|


E|---------------------------------------------------------------------------------------|
B|-1-3-1-0--0-1-0------------------------------------------------------------------------|
G|-0-0-0-0--0-0-0---2--2-2/5---5-5-5/7---7-7-7/9---9-9-9/10---10-10-10/12--12-12-12/14---|
D|------------------2--2-2/5---5-5-5/7---7-7-7/9---9-9-9/10---10-10-10/12--12-12-12/14---|
A|---------------------------------------------------------------------------------------|
E|---------------------------------------------------------------------------------------|


E|---------------------------------------------|
B|---------------------------------------------|
G|-14-14-14/17---17-17-17--16--12--14-14~~-----|
D|-14-14-14/17---17-17-17--16--12--14-14~~-----|
A|---------------------------------------------|
E|---------------------------------------------|


                Bm  D  G
Wipe your tears away    (5x)

Bm   D           G
 Sunday, bloody Sunday (4x)

Sunday, bloody Sunday (Sunday, bloody Sunday)

E|----------------------------------|         e|---------13--12-------------------|
B|------------------(7)-------------|         B|---13--13-------13----------------|
G|-----(7)--(7)-(5)----(7)----------|    ou   G|-14----------------12-------------|
D|--(7)-------------------(7)-------|         D|----------------------------------|
A|----------------------------------|         A|----------------------------------|
E|----------------------------------|         E|----------------------------------|


( B5  D5  G5 ) (4x)

B5          D5            G5
 And it is true we are immune
B5          D5            G5
 When fact is fiction and TV reality
B5          D5            G5
 And today the millions cry
B5          D5            G5
 We eat and drink while they die
B5          D5            G5
 The real battle just begun
B5          D5            G5
 To claim the victory Jesus won
B5        D5         G5
On a Sunday, bloody Sunday
B5    D5        G5
 Sunday, bloody Sunday

obs: na tablatura acima a seguinte nota "(7)". ela esta deste modo pois é para ser tocada com o dedo em cima do traste de leve para gerar o harmônico natural, pois é assim que o THE EGDE toca, caso
fique complicado há uma versão alternativa ao lado.

legenda de sinais

/ = slide
  • 1
  • 2
  • 3
  • 4
  • 5
  • 6
  • 7
  • 8
  • 9
  • 10
  • 11
  • 12

    0 comentários

      mostrar mais comentários

      Conseguiu tocar?

      43tocaram1ainda não

      Grave um vídeo tocando Sunday Bloody Sunday e mande pra gente!

      00:00 / 00:00
      outros vídeos desta música
      repetirqualidadeautomática
      • automática
      Outro vídeos desta música
        00:00 / 00:00
        automática
        • automática
        3 versões de Tab de baixoexibiçõescontribuições
        1 versão de Tab de bateriaexibiçõescontribuições
        1 versão de Tab de gaitaexibiçõescontribuições
        fecharplay/pause subir/descer velocidade
          acordes
          fechar
          OK
          Feedback