Cifra Club

City of Blinding Lights

U2

Cifra: Principal (violão e guitarra)
Tom: A
Versão do 360 tour. Favor escutar a musica antes de sair tocando se nao nao da.

Intro: 
 
Repetir ate o inicio do outro Riff, como eu disse, se nao escutar a musica nao adianta de nada

E|-------------------------------------------|                                           
B|-10-10-10-10-10-10-10-10-9-9-9-9-12-12-9-10|
G|-------------------------------------------|      Repetir  ate o começo do outro Riff                                     
D|-------------------------------------------|                                           
A|-------------------------------------------|                                           
E|-------------------------------------------|                                           


E|-------------------------------------------|                                           
B|--10--12--15--14--10--12---15---14--10--12---15---14--12--7|  
G|-------------------------------------------|                                         
D|-------------------------------------------|                                      
A|-------------------------------------------|                                           
E|-------------------------------------------|


E|------------------------------------------------------------------------------------12-----12|                                           
B|-10-10-10-10-10-10-10-10-10-10-10-10-10-10-10-10-10-10-10-9-9-9-9-12-12-9-10----10-------10| 
G|-------------------------------------------|                                          
D|-------------------------------------------|                                           
A|-------------------------------------------|             Repetir 3x ate o começo do outro Riff                               
E|-------------------------------------------| 


E|-------------------------------------------|                                           
B|-15---13---12---13---12-----12-----------------------|
G|------------------------14-------14--12---11------------|      Repetir 2x  ate o começo do outro Riff                                     
D|-----------------------------------------------14---------|                                           
A|---------------------------------------------------|                                           
E|---------------------------------------------------| 


E|--------------------------------------------------10-10-10-10-12-12-12-12-14-14-14-14-10-10-10-10|                                           
B|-12-12-12-10-12-12-12-10-12-12-12-10-12-12-12-12|
G|-------------------------------------------|              Repetir 4x ate o começo do outro Riff                                     
D|-------------------------------------------|                                           
A|-------------------------------------------|                                           
E|-------------------------------------------| 


E|-------------------------------------------|                                           
B|--10--12--15--14--10--12---15---14--10--12---15---14--12--7|
G|-------------------------------------------|                                         
D|-------------------------------------------|                                         
A|-------------------------------------------|                                           
E|-------------------------------------------|


E|------------------------------------------------------------------------------------12-----12|                                           
B|-10-10-10-10-10-10-10-10-10-10-10-10-10-10-10-10-10-10-10-9-9-9-9-12-12-9-10----10-------10| 
G|-------------------------------------------|                                          
D|-------------------------------------------|                                           
A|-------------------------------------------|             Repetir 3x ate o começo do ouro Riff                              
E|-------------------------------------------| 


E|---------------------------------0---------|                                           
B|-------------------------------------------|
G|-------------------------------------------|      Repetir 2x ate o começo do outro Riff                                     
D|--11--11b--9--11--11b--9--2--2--4----4-----|                                           
A|-------------------------------------------|                                           
E|-------------------------------------------|                                           


E|-------------------------------------------|                                           
B|-15---13---12---13---12-----12-----------------------|
G|------------------------14-------14--12---11------------|      Repetir 2x  ate o começo do outro Riff                                     
D|-----------------------------------------------14---------|                                           
A|---------------------------------------------------|                                           
E|---------------------------------------------------| 


E|--------------------------------------------------10-10-10-10-12-12-12-12-14-14-14-14-10-10-10-10|                                           
B|-12-12-12-10-12-12-12-10-12-12-12-10-12-12-12-12|
G|-------------------------------------------|              Repetir 3x ate o começo do outro Riff                                     
D|-------------------------------------------|                                           
A|-------------------------------------------|                                           
E|-------------------------------------------| 


E|-------------------------------------------|                                           
B|--10--12--15--14--10--12---15---14--10--12---15---14--12--7|  
G|-------------------------------------------|                                         
D|-------------------------------------------|             Repetir 1x                       
A|-------------------------------------------|                                           
E|-------------------------------------------|

What time is in the world?

E|-------------------------------------------|                                           
B|-------------------------------------------|
G|-------------------------------------------|      Repetir 4x ate o começo do outro Riff                                     
D|----7----7/9-------------------------------|                                           
A|-------------------------------------------|                                           
E|-------------------------------------------|                                           


E|--------------------------------------------------10-10-10-10-12-12-12-12-14-14-14-14-10-10-10-10|                                           
B|-12-12-12-10-12-12-12-10-12-12-12-10-12-12-12-12|
G|-------------------------------------------|              Repetir 5x ate o começo do outro Riff                                     
D|-------------------------------------------|                                           
A|-------------------------------------------|                                           
E|-------------------------------------------| 


E|-------------------------------------------|                                           
B|--10--12--15--14--10--12---15---14--10--12---15---14--12--7| 
G|-------------------------------------------|                                         
D|-------------------------------------------|                                         
A|-------------------------------------------|                                           
E|-------------------------------------------|


E|------------------------------------------------------------------------------------12-----12|                                           
B|-10-10-10-10-10-10-10-10-10-10-10-10-10-10-10-10-10-10-10-9-9-9-9-12-12-9-10----10-------10| 
G|-------------------------------------------|                                          
D|-------------------------------------------|                                           
A|-------------------------------------------|             Repetir ate o fim da musica                              
E|-------------------------------------------|
exibições 105.014
Acordes para:
    Composição: Adam Clayton / Bono / Larry Mullen, Jr. / The Edge Colaboração e revisão:
    • iago oliveira
    • Diego Sodre
    • Wiliam Koester

    0 comentários

    mostrar mais comentários

    Conseguiu tocar?

    6 tocaram 0 ainda não

    Grave um vídeo tocando City of Blinding Lights e mande pra gente!

    00:00 / 00:00
    outros vídeos desta música
    repetir qualidade Automático
    Outros vídeos desta música
    00:00 / 00:00
    Automático
    OK