Cifra Club

Olá, Solidão

Ulisses Avelino

Tab de baixo: Principal
[Intro]

         Em                 G
Gb|------------------------------------------|
Db|------------------------------------------|
Ab|------------------------------------------|
Eb|12/---0-0-0-0-0-0-0-0--2-3-3-3-3-3-3-3-3--|

      C               D
Gb|------------------------------------|
Db|----------------------------7-5-4---|
Ab|-2-3-3-3-3-3-3-3-3/5-5-5-5-5-5-5-5--|
Eb|------------------------------------|

    Em                                                                                                     
Gb|-------------------------------------|
Db|--------------2-2---------2-----2-2--|
Ab|-------------------------------------|
Eb|-0-0-0-0-0-0-0-0--0-0-0-0--0-0-0-0---|

      G
Gb|--------------------------------------|
Db|--------------5-5---------5-----5-5---|
Ab|--------------------------------------|
Eb|-2/3-3-3-3-3-3-3--3-3-3-3--3-3-3-3----|
      C               D
Gb|---------------------------------------|
Db|---------------------------------------|  1ª vez
Ab|-2-3-3-3-3-3-3-3-3/5-5-5-5-5-5-----5h7-|
Eb|-------------------------------5h7-----|

      C               D9
Gb|-----------------------9----------------|
Db|---------------------7---7---7----------|  2ª vez
Ab|-2-3-3-3-3-3-3-3-3/5-------5---5/7~~~---|
Eb|----------------------------------------|

[Verso]

     Em   D    C    D
Gb|------------------------|
Db|------------------------|  1º Pré-Verso
Ab|--777--5555-333--5~~~~--|
Eb|------------------------|

       Em     D       CBC D
Gb|----------------------------|
Db|----------------------------|  Final 2º Pré-verso
Ab|--5h7----7-5-5x5-5-323-5~~--|
Eb|------0---------------------|

       Em     D       C           D
Gb|-----------------------------------------------|    Começo
Db|-----------------------------------------------|  2ºPré-Verso
Ab|--5h7----7-5-5x5-5-3-3-3-3-3-3/5-5-5-5----5h7--|  Parte A e C
Eb|------0--------------------------------5h7-----|

     Em  D       C      
Gb|-----------------------4b5----|
Db|-------------------2-5--------| Parte B
Ab|----7-5-5x5-5-3-3-------------|
Eb|--0---------------------------|

       Em     D       C               D            
Gb|-----------------------------------------------------|
Db|-----------------------------------------------------| Parte D
Ab|--5h7----7-5-5x5-5-3-3-3-3-3-3-3-3/5-5-5-5-5-5--3h5p3|
Eb|------0----------------------------------------------|

[Refrão]

    G       F#      Em        C
Gb|---------------------------------------|
Db|---------------------------------------|       3x
Ab|-------------------------2/3-3-3-3/5---| 
Eb|-3-3-3-3-2-2-2-2-0-0-0-0---------------|

    G       F#      Am        C             Em
Gb|-------------------------------------------|
Db|-------------------------------------------|       1x
Ab|-----------------0-0-0-0-2/3-3-3-3-2-------| 
Eb|-3-3-3-3-2-2-2-2---------------------3-2-0-|

    G       F#      Am        C       C(oitava)
Gb|------------------------------------------|
Db|------------------------------------------|  Refrão Final
Ab|-----------------0-0-0-0-2/3-3-3-3/15-15--| 
Eb|-3-3-3-3-2-2-2-2--------------------------|

[Solo 1 e 2]

     Em        G          C         D
Gb|----------------------------------------------------|
Db|------5-----------9------5---5----------------------|   
Ab|-/7-7---7-7/10-10---10-3---3---3/5-5-5-5-----5h7----|
Eb|-----------------------------------------5h7-----0--|

     Em      G           C            
Gb|---------------------------------------------------|
Db|----5-----------12----------10-------10---10---10--|   
Ab|--7---7-7/10-10----10------------------------------|
Eb|----------------------8-8-8----8-8-8----8----8-----|

[Final]

    Em          D              C       D                   Em
Gb|----12----12-11----11----11---7---7----11----11-----|--12~~~~-|
Db|----------------------------------------------------|---------|   
Ab|----------------------------------------------------|---------|
Eb|-12----12----10-10----10----8---8---10----10----10--|--12~~~~-|
Composição de Ulisses Avelino
Colaboração e revisão:
  • Ulisses Souza

0 comentários

Ver todos os comentários

Conseguiu tocar?

0 Tocaram 0 Ainda não

Grave um vídeo tocando Olá, Solidão e nos envie!

00:00 / 00:00
Outros vídeos desta música
Repetir Qualidade Automático
Outros vídeos desta música
00:00 / 00:00
Automático

Cifra Club Pro

Aproveite o Cifra Club com benefícios exclusivos e sem anúncios
Cifra Club Pro
Aproveite o Cifra Club com benefícios exclusivos e sem anúncios
OK