Cifra Club

Acalma Minha Tempestade

Vida Reluz

Cifra: Principal (violão e guitarra)
Selo Cifra Club: esta cifra foi revisada para atender aos critérios oficiais da nossa Equipe de Qualidade.
tom: G
[Intro]

          C
E|-3-2-3-------2-----0-------------------|
B|-----------------------------3---------|
G|-----------0-----0-------0-------------|
D|---------2-----2-------2---------------|
A|-------3-----3-------3-----------------|
E|---------------------------------------|

          Em
E|-3-2-3-------2--------0----------------|
B|---------0--------0-------3------------|
G|-----------0--------0---0--------------|
D|---------------------------------------|
A|---------------------------------------|
E|-------0--------0----------------------|

        C       D         Em
E|---------------------------------------|
B|-8-7-8--5-8-10-8-7-5-------------------|
G|---------------------7-4---------------|
D|---------------------------------------|
A|---------------------------------------|
E|---------------------------------------|

        C       D         Em
E|---------------------------------------|
B|-8-7-8--5-8-10-8-7-5---5---------------|
G|---------------------7-----------------|
D|---------------------------------------|
A|---------------------------------------|
E|---------------------------------------|

        C        D                   Em
Mar agitado e o barco se enchendo de água
         C         D            Em
E preocupados, se lamentavam dizendo
     C         D         Em
"Oh Mestre, estamos perecendo”
     C         D         Em
"Oh Mestre, estamos perecendo”

Em               D
Ele se levantou, e logo ordenou
        Am                     Em
Que os ventos então se acalmassem
Em               D
Ele se levantou, e logo ordenou
       Am                       Em
Que as águas não mais se agitassem
       C                D               Em
Quem é Este, que até o vento conhece a voz
       C                D              Em
Quem é Este, que até o mar agitado obedece
       C          D4          D
Quem é Este, seu nome é Jesus

  G                     D/F#
Acalma minha tempestade
  Em
Acalma minha tempestade
     C              Am           D4        D
Eu quero navegar seguro ao lado teu Senhor
  G                     D/F#
Acalma minha tempestade
  Em
Acalma minha tempestade
     C                         D4              Em
Eu creio que a bonança vai chegar sobre minha vida
D          Em
Ahh....ooohooh
C     D
Ahh...Ahh

Em               D
Ele se levantou, e logo ordenou
        Am                     Em
Que os ventos então se acalmassem
Em               D
Ele se levantou, e logo ordenou
       Am                       Em
Que as águas não mais se agitassem
       C                D               Em
Quem é Este, que até o vento conhece a voz
       C                D              Em
Quem é Este, que até o mar agitado obedece
       C          D4          D
Quem é Este, seu nome é Jesus

  G                     D/F#
Acalma minha tempestade
  Em
Acalma minha tempestade
     C              Am           D4        D
Eu quero navegar seguro ao lado teu Senhor
  G                     D/F#
Acalma minha tempestade
  Em
Acalma minha tempestade
     C                         D4              Em
Eu creio que a bonança vai chegar sobre minha vida
D          Em
Ahh....ooohooh
C     D
Ahh...Ahh
00:00 / 00:00
Outros vídeos desta música
Repetir
Outros vídeos desta música
22.641 exibições
    • ½ Tom
    • A
    • Bb
    • B
    • C
    • Db
    • D
    • Eb
    • E
    • F
    • F#
    • G
    • Ab
  • Adicionar à lista

Afinação da cifra

Afinador online

    0 comentários

    Ver todos os comentários

    Entre para o Cifra Club PRO

    Tenha acesso a benefícios exclusivos no App e no Site

    • Chega de anúncios

    • Mais recursos no app do Afinador

    • Atendimento Prioritário

    • Aumente seu limite de lista

    • Ajude a produzir mais conteúdo

    00:00 / 00:00

    Cifra Club Pro

    Aproveite o Cifra Club com benefícios exclusivos e sem anúncios
    Cifra Club Pro
    Aproveite o Cifra Club com benefícios exclusivos e sem anúncios
    OK