Cifra Club

La Velocidad

Viniloversus

Cifra: Principal (violão e guitarra)
tom: Gm
G      F         D#     C        Bb
3554xx x81010xx  x688xx x355xx   x133xx



Intro
E|-------------------------|
B|-------------------------|
G|---3-h5-3-5-3-0--12/-----| x 2
D|---3-h5-3-5-3-0--12/-----|
A|-------------------------|
E|-------------------------|

E|-------------------------------|
B|-------------------------------|
G|---3-h5-3-5-3-0--0-3-5-7-5-3---|
D|---3-h5-3-5-3-0--0-3-5-7-5-3---|
A|-------------------------------|
E|-------------------------------|

                  A  vida
E|----------------------|
B|----------------------|
G|---3-h5-3-5-3-0-------|
D|---3-h5-3-5-3-0-------|
A|----------------------|
E|----------------------|
                 se encierra
E|----------------------|
B|----------------------|
G|---3-h5-3-5-3-0-------|
D|---3-h5-3-5-3-0-------|
A|----------------------|
E|----------------------|

C            Bb
en una canción

                  producto
E|----------------------|
B|----------------------|
G|---3-h5-3-5-3-0-------|
D|---3-h5-3-5-3-0-------|
A|----------------------|
E|----------------------|
                 de nuestra
E|----------------------|
B|----------------------|
G|---3-h5-3-5-3-0-------|
D|---3-h5-3-5-3-0-------|
A|----------------------|
E|----------------------|
C          Bb
imaginación.

          G  F
Si me equivoco no te alarmes
        D#
yo improviso la verdad
        G  F
se me desboco no me frenes
      D#    D    C
frena la velocidad.


                  Mesias
E|----------------------|
B|----------------------|
G|---3-h5-3-5-3-0-------|
D|---3-h5-3-5-3-0-------|
A|----------------------|
E|----------------------|
                de toda
E|----------------------|
B|----------------------|
G|---3-h5-3-5-3-0-------|
D|---3-h5-3-5-3-0-------|
A|----------------------|
E|----------------------|
C         Bb
una religión

                 lo envían
E|----------------------|
B|----------------------|
G|---3-h5-3-5-3-0-------|
D|---3-h5-3-5-3-0-------|
A|----------------------|
E|----------------------|
                  camino
E|----------------------|
B|----------------------|
G|---3-h5-3-5-3-0-------|
D|---3-h5-3-5-3-0-------|
A|----------------------|
E|----------------------|
C            Bb
a la perdición.


 G  F
Si me equivoco no te alarmes
        D#
yo improviso la verdad
        G  F
se me desboco no me frenes
      D#    D    C
frena la velocidad.

E|----------------|
B|----------------|
G|---3-3-5-5-5----| x 3
D|----------------|
A|----------------|
E|----------------|
 Esta parte muy rapido
E|----------------------------------------------------------------------|
B|----------------------------------------------------------------------|
G|-0-0-0-0-1717-0-0-0-0-1515-0-0-0-0-1212-0-0-0-0-77-0-0-0-055-0-0-0-033|
D|----------------------------------------------------------------------|
A|----------------------------------------------------------------------|
E|----------------------------------------------------------------------|

E|-----------------------------|
B|-----------------------------|
G|---15-15-15-15-15-17-17-17-17| X2
D|-----------------------------|
A|-----------------------------|
E|-----------------------------|

G
Si me equivoco no te alarmes
          F
yo improviso la verdad
D#                     G
se me desboco no me frenes

frena la velocidad.

E|----------------------------|
B|----------------------------|
G|-4-4-3-3-3-3--4-4-5-5-5-5---| x 2
D|-5-5----------5-5-----------|
A|-5-5----------5-5-----------|
E|-3-3----------3-3-----------|

E|----------------------------------------------------------------------|
B|----------------------------------------------------------------------|
G|-0-0-0-0-1717-0-0-0-0-1515-0-0-0-0-1212-0-0-0-0-77-0-0-0-055-0-0-0-033|
D|----------------------------------------------------------------------|
A|----------------------------------------------------------------------|
E|----------------------------------------------------------------------|

E|--------------------------------------------------------------|
B|--------------------------------------------------------------|
G|---15-15-15-15-15-17-17-17-17-17-17-17-17-15-15-15-15---------|
D|------------------------------------------------------17-17-17|
A|--------------------------------------------------------------|
E|--------------------------------------------------------------|
00:00 / 00:00
Outros vídeos desta música
Repetir
Outros vídeos desta música
Compositor não encontrado.
3 exibições
    • ½ Tom
    • Am
    • Bbm
    • Bm
    • Cm
    • C#m
    • Dm
    • Ebm
    • Em
    • Fm
    • F#m
    • Gm
    • G#m
  • Adicionar à lista

    0 comentários

    Ver todos os comentários

    Entre para oCifra Club PRO

    Tenha acesso a benefícios exclusivos no App e no Site

    • Chega de anúncios

    • Prioridade de compra em lançamentos

    • Mais recursos no app do Afinador

    • Atendimento Prioritário

    • Descontos nos produtos Cifra Club

    • Ajude a produzir mais conteúdo

    00:00 / 00:00

    Cifra Club Pro

    Aproveite o Cifra Club com benefícios exclusivos e sem anúncios
    Cifra Club Pro
    Aproveite o Cifra Club com benefícios exclusivos e sem anúncios
    OK