Cifra Club

O Escudo

Voz da Verdade

Cifra: Principal (violão e guitarra)
exibições 1.456.828
Tom: D
[Intro] D  Em  A  D

                 D                     Em
Por toda minha vida, ó Senhor te louvarei
                       A                     D
Pois meu fôlego é tua vida, e nunca me cansarei
                                             Em
Posso ouvir a sua voz, é mais doce do que o mel
                   A                     D
Que me tira desta cova, e me leva até o céu
                                            Em
Já ví fogo e terremoto, vento forte que passou
                  A                         D
Já vivi tantos perigos, mas tua voz me acalmou
                                              Em
Tú dás ordem as estrelas, e ao mar os seus limites
                   A                     D
Eu me sinto tão seguro, no teu colo ó altíssimo

[Refrão]

           Bm          F#m            G       A
Não há ferrolhos, nem portas, que se fechem diante
        D            Bm          F#m         G
Da tua voz, não há doenças, nem culpas, que fiquem
    A            D              Bm        F#m
De pé diante de nós, e a tempestade, se acalma, na
 G            A         D               Bm       F#m
Voz daquele que tudo criou, pois sua palavra, é pura
   G             A        D
Escudo para os que nele crêem

[Solo] Bm  F#m  G  A  D

E|-----------------------------------------------|
B|-----7---------10--7---10-10-8-8-7-7--5-5---7--|
G|-7-9---9-7~--7----------------------------7----|
D|-----------------------------------------------|
A|-----------------------------------------------|
E|-----------------------------------------------|

E|-----------------------------------------------|
B|-----7---------10--7---10-10-8-8-7-7--5-5------|
G|-7-9---9-7~--7----------------------------7-7--|
D|-----------------------------------------------|
A|-----------------------------------------------|
E|-----------------------------------------------|

[Refrão]

           Bm          F#m            G       A
Não há ferrolhos, nem portas, que se fechem diante
        D            Bm          F#m         G
Da tua voz, não há doenças, nem culpas, que fiquem
    A            D              Bm        F#m
De pé diante de nós, e a tempestade, se acalma, na
 G            A         D               Bm       F#m
Voz daquele que tudo criou, pois sua palavra, é pura
   G             A        D
Escudo para os que nele crêem

0 comentários

mostrar mais comentários

Conseguiu tocar?

182 tocaram 23 ainda não

Grave um vídeo tocando O Escudo e mande pra gente!

00:00 / 00:00
outros vídeos desta música
repetir qualidade Automático
Outro vídeos desta música
00:00 / 00:00
Automático
OK