Cifra Club

Cats Eye Resurrection

White Zombie

Cifra: Principal (violão e guitarra)
Selo Cifra Club: esta cifra foi revisada para atender aos critérios oficiais da nossa Equipe de Qualidade.
tom: Eb
intro
Eb||----------------------------------------------------||
Bb||*--------------------------------------------------*||
Gb||----------------------------------------------------||
Db||----------------------------------------------------||
Ab||*--2-1-0-2-1-0-2-1-0-------2-1-0-2-1-0-2-1-0-------*||
Eb||---------------------4-4-4-------------------3-3-3--||

verse
E|----------------------------------------------------|
B|----------------------------------------------------|
G|-----------10----16----12---------------------------|
D|----5/7--x-10--x-16--x-12---x-7--x-3--x-9---x-5-----|
A|----5/7--x--8--x-14--x-10---x-x--x-x--x-x---x-x-----|
E|----3/5--x--8--x-14--x-10---x-5--x-1--x-7---x-3^b---|

E|------------------------------------------------------------------|
B|------------------------------------------------------------------|
G|------------------------------------------------------------------|
D|------------------------------------------------------------------|
A|----------8-8--8^7--------10-9-7~~--------------------------------|
E|----5-5-5----------7~~~~~-----------5--5/12-12^b12--5/7----3-r| est-|

chorus
Eb||----------------------------------------------------||
Bb||*--------------------------------------------------*||
Gb||----------------------------------------------------||
Db||----------------------------------------------------||
Ab||*--2-1-0-2-1-0-2-1-0-------2-1-0-2-1-0-2-1-0-------*||
Eb||---------------------4-4-4-------------------3-3-3--||

verse
E|-------------------------------------------------------------------------------|
B|-------------------------------------------------------------------15-15-15----|
G|-14-14-14--10-10-10--/16-16-16\-12-12-12----------10-10----16------17^b^b^b----|
D|-14-14-14--10-10-10--/16-16-16\-12-12-12-x-7--x---10-10--x-16-15^b-------------|
A|-12-12-12---8--8--8--/14-14-14\-10-10-10-x-7--x-8--8--8--x-14------------------|
E|-12-12-12---8--8--8--/14-14-14\-10-10-10-x-5--x----------x---------------------|

E|-------------------------------------------------------------------------------------|
B|-------------------------------------------------------------------------------------|
G|-----------------------16-16-16-12-12-12---------------------------------------------|
D|-7--x------------------16-16-16-12-12-12---------------------------------------------|
A|-7--x------------------14-14-14-10-10-10-----------------------------10^b\-----------|
E|-5--x-/13-13-13-13\12--14-14-14-10-10-10-5--x-/13-13-13-13\12--7-7-7-----------------|

chorus
Eb||----------------------------------------------------||
Bb||*--------------------------------------------------*||
Gb||----------------------------------------------------||
Db||----------------------------------------------------||
Ab||*--2-1-0-2-1-0-2-1-0-------2-1-0-2-1-0-2-1-0-------*||
Eb||---------------------4-4-4-------------------3-3-3--||

E|------------------------------------------------------------------|
B|------------------------------------------------------------------|
G|-16-15-14--16-15-14--16~~~~~~~~~~~~~~~~~~~~~~~~~~~~~~~~~~~~~~~~~~~|
D|------------------------------------------------------------------|
A|------------------------------------------------------------------|
Eb|------------------------------------------------------------------|
Outros vídeos desta música
      • ½ Tom
      • A
      • Bb
      • B
      • C
      • Db
      • D
      • Eb
      • E
      • F
      • F#
      • G
      • Ab
    • Adicionar à lista

    Afinação da cifra

    Afinador online

      0 comentários

      Ver todos os comentários

      Entre para o Cifra Club PRO

      Tenha acesso a benefícios exclusivos no App e no Site

      • Chega de anúncios

      • Mais recursos no app do Afinador

      • Atendimento Prioritário

      • Aumente seu limite de lista

      • Ajude a produzir mais conteúdo

      Cifra Club Pro

      Aproveite o Cifra Club com benefícios exclusivos e sem anúncios
      Cifra Club Pro
      Aproveite o Cifra Club com benefícios exclusivos e sem anúncios
      OK