Cifra Club

Super-Charger Heaven

White Zombie

Cifra: Principal (violão e guitarra)
Selo Cifra Club: esta cifra foi revisada para atender aos critérios oficiais da nossa Equipe de Qualidade.
tom: Bm
(EADGBE♭) / (D# G# C# F# A# D#)
then Drop E♭ to D♭ / C#
C# g# c# f# a# d#



INTRO Riff A:
                                          2xs
D|----------------------------|-----------|
A#|:---------------------------|----------:|
E|-5-5-4--5-5-4--5-5-4--5-5-4-|-5-5-5-4---|
B|-x-x-x--x-x-x--x-x-x--x-x-x-|-x-x-x-x---|
G|-3-3-2--3-3-2--3-3-2--3-3-2-|-3-3-3-2---|
D|----------------------------|-----------|


[INTRO Riff B]
                                                 4xs
D|-----------------------------|-----------------------------|
A#|:----------------------------|----------------------------:|
E|-----------------------------|-----------------------------|
B|-3h5--5-5--3h5--5-5--3h5-3-0-|-3h5--5-5--3h5--5-5--3h5-3-0-|
G|-3h5--5-5--3h5--5-5--3h5-3-0-|-3h5--5-5--3h5--5-5--3h5-3-0-|
D|-3h5--5-5--3h5--5-5--3h5-3-0-|-3h5--5-5--3h5--5-5--3h5-3-0-|


[INTRO Solo A]
                                         2xs
D|---------------------------------------|
A#|:--8---8--8--8--8---8---8-8-8--8-8-8--:|
E|--10^-10-10-10-10-10----7-7-7--6-6-6---|
B|----| hold bend|``````------------------|
G|---------------------------------------|
D|---------------------------------------|

E|-------------------------------------------|
B|---8---8--8--8--8---8---8---8--8--8--8--8--|
G|--10^-10-10-10-10--10--10^-10-10-10-10-10--|
D|-------------------------------------------|
A|-------------------------------------------|
E|-------------------------------------------|
      hold bend``````     hb``````````````

E|-13-13-13-12-13-13-12-13-13-13-15-15-15-15-15-15---|
B|-12-12-12-12-12-12-12-12-12-12-12-12-12-12-12-12---|
G|---------------------------------------------------|
D|---------------------------------------------------|
A|---------------------------------------------------|
E|---------------------------------------------------|

[Verse Intro]

D|-----------------------------------|
A#|:------------------------5--5--5--:| X 3
E|-------------------------7^-7^-7^--|
B|-----------------------------------|
G|-3---0-5---0-6---0-5---0-----------|
D|-3p0-0-5p0-0-6p0-0-5p0-0-----------|

D|-------------------------------------|
A#|:-----------------------10--10--10--:| X 3
E|------------------------12^-12^-12^--|
B|-------------------------------------|
G|-3---0-5---0-6---0-5---0-------------|
D|-3p0-0-5p0-0-6p0-0-5p0-0-------------|


[VERSE RIFF]

D|---------------------------------|
A#|:-------------------------------:|
E|---------------------------------| X 8
B|--------------------------6--6---|
G|--------------------------6--6---|
D|-3p0-0-5p0-0-6p0-0-5p0-0--6--6---|

                                       YEAAHH!!!!
D|----------------------------|-----------|
A#|:---------------------------|----------:|
E|-5-5-4--5-5-4--5-5-4--5-5-4-|-5-5-5-4---| x 2
B|-x-x-x--x-x-x--x-x-x--x-x-x-|-x-x-x-x---|
G|-3-3-2--3-3-2--3-3-2--3-3-2-|-3-3-3-2---|
D|----------------------------|-----------|


[Chorus]

D|-----------------------------|-----------------------------|
A#|-----------------------------|-----------------------------|
F#|-----------------------------|-----------------------------| x 4
C#|-3h5--5-5--3h5--5-5--3h5-3-0-|-3h5--5-5--3h5--5-5--3h5-3-0-|
G#|-3h5--5-5--3h5--5-5--3h5-3-0-|-3h5--5-5--3h5--5-5--3h5-3-0-|
C#|-3h5--5-5--3h5--5-5--3h5-3-0-|-3h5--5-5--3h5--5-5--3h5-3-0-|


....verse intro.....


[VERSE RIFF]

D|--------------------------------|
A#|:------------------------------:|
E|--------------------------------| X 8
B|--------------------------6--6--|
G|--------------------------6--6--|
D|-3p0-0-5p0-0-6p0-0-5p0-0--6--6--|


[Chorus]


[Solo 2]

E|--------------------------6-6--6-------------------------|
B|---8---8--3--3-3-3-3-3--6-6-6--6-----5p3------------3----|
G|--10^-10^-5^-5-5-5-5-5------5^-3-----5p3------------3----|
D|-----------------------------------------5-------5--3--5-|
A|---------------------------------------------------------|
E|---------------------------------------------------------|
                        hold bend---|

E|--------x-x-x----------------------------------------6-6-6-6-6----|
B|--------x-x-x---8---8--8-----1--1-1---1--1-3-3---3---6-6-6-6-6----|
G|--/12\---------10^-10-10-----5^-5-5---5^-5-5-5---5----------------|
D|------------------------------------------------------------------|
A|------------------------------------------------------------------|
E|------------------------------------------------------------------|
                            hold Bend-|    hold Bend   hold Bend

E|---------------------------|
B|----5-5-3--------3--3------|
G|--3-5-5-3--------3--3---3\-|
D|-----------5-3-5-----------|
A|---------------------------|
E|---------------------------|


[Bridge]
                 7xs
D|-----------------|-----------------|
A#|:---------------:|-----------------|
E|-------7^-7^-7^--|----12^-12^-12^--|
B|-----------------|-----------------|
G|-----------------|-----------------|
D|-----------------|-----------------|

.....verse riff.....
[Chorus]


Solo 3 / Outro

E|----------------------------------------------------------------------|
B|-10-10-10-10-10-10-10-10----3--3---3--3-3-3--3--3-3--3--3--3----------|
G|-10-10-10-10-10-10-10-10----5^-5---5b-5-5-5--5^-5-5--5--2--0----------|
D|-------------------------------------------------------------5h6p5p3--|
A|----------------------------------------------------------------------|
E|----------------------------------------------------------------------|

E|------------------------------------------------------------------------|
B|------------------------------------------------------------------------|
G|------------------------------------------------------------------------|
D|------------------------------------------------------------------------|
A|-----------------------7--7--7--7--7---7--7-7----7--7--7--7--7--7--7-7--|
E|-0-| DIVE----------------12-12-12-11-11--11-8-8----12-12-12-11-11-11-8-8--|

E|--10-10-10-10-10-10-10-10--10--10-10-10-10-10-10-10-----|
B|--13-13-13-12-12-12-10-10--13^-13-13-13-13-13-13-13-----|
G|--------------------------------------------------------|
D|--------------------------------------------------------|
A|--------------------------------------------------------|
E|--------------------------------------------------------|



   /  =  slide up           \ = slide down
   h  =  hammer on          p = pull off
   ~  =  tremolo / vibrato
   ^  =  bend note
                  dive = whammy / tremolo bar dive (press down)
        hold bend & hb = bend note and hold note w bend
                 |-x-| = palm mute note(s) with fret hand
                 |:-:| = repeat bar measure
Outros vídeos desta música
    6 exibições
      • ½ Tom
      • Am
      • Bbm
      • Bm
      • Cm
      • C#m
      • Dm
      • Ebm
      • Em
      • Fm
      • F#m
      • Gm
      • G#m
    • Adicionar à lista

    Afinação da cifra

    Afinador online

      0 comentários

      Ver todos os comentários

      Entre para o Cifra Club PRO

      Tenha acesso a benefícios exclusivos no App e no Site

      • Chega de anúncios

      • Mais recursos no app do Afinador

      • Atendimento Prioritário

      • Aumente seu limite de lista

      • Ajude a produzir mais conteúdo

      Cifra Club Pro

      Aproveite o Cifra Club com benefícios exclusivos e sem anúncios
      Cifra Club Pro
      Aproveite o Cifra Club com benefícios exclusivos e sem anúncios
      OK