Cifra Club

Electric Head Part 1

White Zombie

Cifra: Principal (violão e guitarra)
Selo Cifra Club: esta cifra foi revisada para atender aos critérios oficiais da nossa Equipe de Qualidade.
tom: Bb
E|--------|------------------|-----|------------------|
B|--------|------------------|-----|-14b~~---10| B-(10)-|
G|--------|--7~~~--9b--12| B~~-|-----|------------------|
D|--------|------------------|-----|------------------|
A|--------|------------------|-----|------------------|
E|--------|------------------|-----|------------------|

                                      4xs                           4xs            
E|------------------|-------------|-------|---------------------------|
B|-(10)-------------|-8| B-8-8~~----|:-----:|:-------------------------:|
G|-----9| Bb--10-9Bb--|-------------|-------|--9b-9b-9b-9b-9b-9b-9b-9b--|
D|------------------|-------------|-------|---------------------------|
A|------------------|-------------|-------|---------------------------|
E|------------------|-------------|-------|---------------------------|


[Verse 1]
                                                                       3xs   
D|-----------------|----------------|-----------------|-----------------|
A#|:----------------|----------------|-----------------|----------------:|
E|-----------------|----------------|-----------------|-----------------|
B|-----6-3-----6-3-|-----6-3-----3--|-----6-3-----6-3-|-----6-3-----0-3-|
G|-0-0-6-3-0-0-6-3-|-0-0-6-3-0-0-3--|-0-0-6-3-0-0-6-3-|-0-0-6-3-0-3-0-3-|
D|-0-0-6-3-0-0-6-3-|-0-0-6-3-0-0-3--|-0-0-6-3-0-0-6-3-|-0-0-6-3-0-3-0-3-|

                     
[Chorus]
                                                         3xs         
E|-----------------|-------------------|-------------------|-----------------------------|
B|-----------------|-------------------|-------------------|-----------------------------|
G|-----------------| :-2---2---3\2---2--|-(2)--------------:|--2---2---3\2---2----3-------|
D|-----------------|--0---0---1\0---0--|-(0)---------------|--0---0---1\0---0----1-------|
A|-0-0-6-3-0-0-6-3-|--0---0---1\0---0--|-(0)-0-0-0-0-0-0-0-|--0---0---1\0---0----1--6--3-|
E|-0-0-6-3-0-0-6-3-|--0----------------|-----0-0-0-0-0-0-0-|--0---------------------6--3-|


[Verse 2]
                                                                       3xs   
D|-----------------|----------------|-----------------|-----------------|
A#|:----------------|----------------|-----------------|----------------:|
E|-----------------|----------------|-----------------|-----------------|
B|-----6-3-----6-3-|-----6-3-----3--|-----6-3-----6-3-|-----6-3-----0-3-|
G|-0-0-6-3-0-0-6-3-|-0-0-6-3-0-0-3--|-0-0-6-3-0-0-6-3-|-0-0-6-3-0-3-0-3-|
D|-0-0-6-3-0-0-6-3-|-0-0-6-3-0-0-3--|-0-0-6-3-0-0-6-3-|-0-0-6-3-0-3-0-3-|

[Chorus]
                                                         3xs         
E|-----------------|-------------------|-------------------|-----------------------------|
B|-----------------|-------------------|-------------------|-----------------------------|
G|-----------------| :-2---2---3\2---2--|-(2)--------------:|--2---2---3\2---2----3-------|
D|-----------------|--0---0---1\0---0--|-(0)---------------|--0---0---1\0---0----1-------|
A|-0-0-6-3-0-0-6-3-|--0---0---1\0---0--|-(0)-0-0-0-0-0-0-0-|--0---0---1\0---0----1--6--3-|
E|-0-0-6-3-0-0-6-3-|--0----------------|-----0-0-0-0-0-0-0-|--0---------------------6--3-|


[Breakdown]

D|--------------------|----------|------|------------------|
A#|:----3----3---------|---------:|------|------------------|
E|-----7----7---------|----------|------|-----------5------|
B|--------------------|----------|------|-----------5------|
G|-------------6--3---|----------|------|-0-3-5-6-7-3-6-5--|
D|-------------6--3---|--0-------|------|-0-3-5-6-7---6-5--|

                  8xs
E|-----------------|
B|-----------------|
G|-----------------|
D|-2-2-----2-2-----|
A|-2-2-----2-2-----|
E|-2-2-----2-2-----|


[Verse 3]
                                                                       3xs   
D|-----------------|----------------|-----------------|-----------------|
A#|:----------------|----------------|-----------------|----------------:|
E|-----------------|----------------|-----------------|-----------------|
B|-----6-3-----6-3-|-----6-3-----3--|-----6-3-----6-3-|-----6-3-----0-3-|
G|-0-0-6-3-0-0-6-3-|-0-0-6-3-0-0-3--|-0-0-6-3-0-0-6-3-|-0-0-6-3-0-3-0-3-|
D|-0-0-6-3-0-0-6-3-|-0-0-6-3-0-0-3--|-0-0-6-3-0-0-6-3-|-0-0-6-3-0-3-0-3-|

[Chorus]
                                                         3xs         
E|-----------------|-------------------|-------------------|-----------------------------|
B|-----------------|-------------------|-------------------|-----------------------------|
G|-----------------| :-2---2---3\2---2--|-(2)--------------:|--2---2---3\2---2----3-------|
D|-----------------|--0---0---1\0---0--|-(0)---------------|--0---0---1\0---0----1-------|
A|-0-0-6-3-0-0-6-3-|--0---0---1\0---0--|-(0)-0-0-0-0-0-0-0-|--0---0---1\0---0----1--6--3-|
E|-0-0-6-3-0-0-6-3-|--0----------------|-----0-0-0-0-0-0-0-|--0---------------------6--3-|


[Breakdown 2]
               8xs
E|--------------|--------------|
B|--------------|--------------|
G|-9b-9b-9b-9b--|--------------|
D|--------------|-2-2----2-2---|
A|--------------|-2-2----2-2---|
E|--------------|-2-2----2-2---|

[Verse 4]
                                                                       3xs   
D|-----------------|----------------|-----------------|-----------------|
A#|:----------------|----------------|-----------------|----------------:|
E|-----------------|----------------|-----------------|-----------------|
B|-----6-3-----6-3-|-----6-3-----3--|-----6-3-----6-3-|-----6-3-----0-3-|
G|-0-0-6-3-0-0-6-3-|-0-0-6-3-0-0-3--|-0-0-6-3-0-0-6-3-|-0-0-6-3-0-3-0-3-|
D|-0-0-6-3-0-0-6-3-|-0-0-6-3-0-0-3--|-0-0-6-3-0-0-6-3-|-0-0-6-3-0-3-0-3-|

[Chorus]
                                                         3xs         
E|-----------------|-------------------|-------------------|-----------------------------|
B|-----------------|-------------------|-------------------|-----------------------------|
G|-----------------| :-2---2---3\2---2--|-(2)--------------:|--2---2---3\2---2----3-------|
D|-----------------|--0---0---1\0---0--|-(0)---------------|--0---0---1\0---0----1-------|
A|-0-0-6-3-0-0-6-3-|--0---0---1\0---0--|-(0)-0-0-0-0-0-0-0-|--0---0---1\0---0----1--6--3-|
E|-0-0-6-3-0-0-6-3-|--0----------------|-----0-0-0-0-0-0-0-|--0---------------------6--3-|

 [Outro]           end with

E|---------------|-------------------|
B|---------------|-------------------|
G|---------------|-------------------|
D|---------------|-----------5-------|
A|---------------|-0-3-5-6-7-3-6-5---|
E|-0~~~~~~~~~----|-0-3-5-6-7---6-5---|



~ = vibrato/tremolo let ring,  xs = repeat note
/ = slide up                    \ = slide down
h = hammer on                   p = pull off
b = 1/2bend                     B = full bend 
Bb = 1 & 1/2 bend             (#) = ghost note
Outros vídeos desta música
    1 exibições
      • ½ Tom
      • A
      • Bb
      • B
      • C
      • Db
      • D
      • Eb
      • E
      • F
      • F#
      • G
      • Ab
    • Adicionar à lista

    Afinação da cifra

    Afinador online

      0 comentários

      Ver todos os comentários

      Entre para o Cifra Club PRO

      Tenha acesso a benefícios exclusivos no App e no Site

      • Chega de anúncios

      • Badges exclusivas

      • Mais recursos no app do Afinador

      • Atendimento Prioritário

      • Aumente seu limite de lista

      • Ajude a produzir mais conteúdo

      Cifra Club Pro

      Aproveite o Cifra Club com benefícios exclusivos e sem anúncios
      Cifra Club Pro
      Aproveite o Cifra Club com benefícios exclusivos e sem anúncios
      OK