Cifra Club

Cotovelo Vai Doer

Zezé Di Camargo e Luciano

Cifra: Versão 2 (violão e guitarra)
tom: G
 Em      C      G                            D               C ****

E|------------|--2/7-7-7-7-7/2-2-2-2--2-2-2/3/2--2/7-7-7-5-2-2-2---------------|
B|-----5--7--5|--3/8-8-8-8-8/3-3-3-3--3-3-3/5/3--3/8-8-8-7-3-3-3---------------|
G|-2/4-----7--|--------------------------------------------------5-4-2-0-------|
D|------------|---------------------------------------------------------4-2----|
A|------------|----------------------------------------------------------------|
E|------------|----------------------------------------------------------------|

E|---------------------------------------------------|   
B|---------------------------------------------------|
G|---------------------------------------------------| 
D|---------------------------------------------------|  
A|-3-2--0--------------------------------------------|
E|-------3-2-0---------------------------------------|



 Em                     C
 Se Veio Aqui Pra Terminar De Vez
      G
 Por Que Que Tá Com Esse Perfume
            D
 Usando A Roupa Que Eu Te Dei


 Em                   C
 Tá Meio Tarde São Quinze Pras Três
      G
 O Taxi Te Deixou Na Porta
            D
 E Já Foi Embora O Que Cê Quer Eu Sei


 C                              G
 Eu Já Consigo Ver As Suas Intenções
                      D
 Tá Tentando Testar As Minhas Emoções
 C                               G
 Achar Que Sou Cardápio De Variedades
                     D                   C
 Cê Pede O Mesmo De Sempre Mata A Sua Vontade 

         G
 Ai De Você Se Um Dia Esse Jogo Virar
         D
 Ai De Você Se Um Dia Eu Deixa De Gostar
         Em
 Ai De Você Se Um Dia Eu Não Ligar
              C             D
 E Não Te Atender, Cotovelo Vai Doer 

            G
 Ai De Você Se Um Dia Esse Jogo Virar
             D
 Ai De Você Se Um Dia Eu Deixa De Gostar
            Em
 Ai De Você Se Um Dia Eu Não Ligar
             C        D          G
 E Não Te Atender, Cotovelo Vai Doer 


      G                               D


E|-2/7-7-7-7-7/2-2-2-2--2-2-2/3/2--2/7-7-7-5-2-2-2--2-2-2-2/3/2----|
B|-3/8-8-8-8-8/3-3-3-3--3-3-3/5/3--3/8-8-8-7-3-3-3--3-3-3-3/5/3----|
G|-----------------------------------------------------------------|
D|-----------------------------------------------------------------|
A|-----------------------------------------------------------------|
E|-----------------------------------------------------------------|

    Em                                C       ****

E|-----------------------------------------------------------------|
B|-7-7-7-5--5-7-8-7-5-5---5-7-8--7-5---------12-10-8-7-5-----------|
G|-------------------7--------------7-5---7/9----------------------|
D|-7-7-7-5---------------------------------------------------------|
A|-----------------------------------------------------------------|
E|-----------------------------------------------------------------|
00:00 / 00:00
Outros vídeos desta música
Repetir
Outros vídeos desta música
Composição de Danillo Dávilla / Gabriel Do Cavaco / Shylton Fernandes / Thales Lessa
Colaboração e revisão:
  • César Henrique
  • Dayvid Sousa
1.621 exibições
    • ½ Tom
    • A
    • Bb
    • B
    • C
    • Db
    • D
    • Eb
    • E
    • F
    • F#
    • G
    • Ab
  • Adicionar à lista

    0 comentários

    Ver todos os comentários

    Entre para oCifra Club PRO

    Tenha acesso a benefícios exclusivos no App e no Site

    • Chega de anúncios

    • Prioridade de compra em lançamentos

    • Mais recursos no app do Afinador

    • Atendimento Prioritário

    • Descontos nos produtos Cifra Club

    • Ajude a produzir mais conteúdo

    00:00 / 00:00

    Cifra Club Pro

    Aproveite o Cifra Club com benefícios exclusivos e sem anúncios
    Cifra Club Pro
    Aproveite o Cifra Club com benefícios exclusivos e sem anúncios
    OK