Cifra Club

Aprenda

Indiferença

Zezé Di Camargo e Luciano

Cifra: Principal (violão e guitarra)
Tom: B
Intro: E  F#  B  F#/Bb  G#m  E  F#  B  E  B

E|------------|--------------------------|------------|---------------------|
B|------------|--------------------------|------------|---------------------|
G|-8-9-11-----|--------------------------|---8-9-11\--|---------------------|
D|------------|--------------------------|-11---------|-------8/9-8---------|
A|--------9-11|-(11)~----------2-2-2/4-4~|------------|----6--------9-9/11~-|
E|------------|-------2b(4)r2------------|------------|-/7------------------|


E|----------------|--------------|-----------|----------|------|------------|
B|-----------8/9~-|---------9/11~|-----------|----------|------|------------|
G|------9/11-8/9~-|-13\11-9-9/11~|-9/11\9----|----------|------|------------|
D|-9/11-----------|--------------|--------11\|----------|------|------------|
A|----------------|--------------|-----------|-4b(6)r4-2|------|-2~~--------|
E|----------------|--------------|-----------|----------|-2b(4)|------------|

          B
Fala pra mim, diz a verdade
                            C#m
O que mudou assim tão de repente
                     F#
Quero saber de onde vem
C#m         F#              B
Esse medo que machuca a gente

           B
Tá tudo errado, fogo cruzado
     B7                      E
E a gente não consegue se entender
        Em
Porque não me telefona
        B       G#m
De notícias de você
          C#7
Ligue ao menos pra dizer
          F#
Que o melhor é te esquecer

     E                        B
É a sua indiferença é que me mata
         C#m       F#           B  B7
É uma invasão, um nó dentro de mim
     E                         B     G#m
Coração divide em dois na sua falta
     C#m         F#             B
Uma parte é o começo a outra o fim 

     E                      B
É a sua indiferença que me mata
        F#           B   B7
Que me mata, que me mata
     E                         B
Coração divide em dois na sua falta
        F#            B
Na sua falta, na sua falta
Composição de Zezé Di Camargo
Colaboração e revisão:
  • Guilherme Carvalho
  • marcelo rodrigues
344.561 exibições
    • ½ Tom
    • A
    • Bb
    • B
    • C
    • Db
    • D
    • Eb
    • E
    • F
    • F#
    • G
    • Ab
  • Adicionar à lista

    0 comentários

    Mostrar mais comentários
    00:00 / 00:00
    outros vídeos desta música
    repetir qualidade Automático
    Outros vídeos desta música
    00:00 / 00:00
    Automático

    Cifra Club Pro

    Aproveite o Cifra Club com benefícios exclusivos e sem anúncios
    Cifra Club Pro
    Aproveite o Cifra Club com benefícios exclusivos e sem anúncios
    OK