Cifra Club

Away from the sun

3 Doors Down

Cifra: Principal
exibições 180.066
Tom: C
Tom : F 

Intro:

     
E|-----------------------------|---------------------------|
B|--------1--------1--------1--|-----1--------0h--1--------|
G|-----------2--------2--------|--------0------------0-----|
D|--3-----------3--------3-----|--2--------2---------------|
A|-----------------------------|---------------------------|
E|-----------------------------|---------------------------|

  
E|--------------------------|------------------------0--|
B|-----1--------1--------1--|-----1--------0h--1--3-----|
G|--------0--------0--------|--------0------------------|
D|--------------------------|---------------------------|
A|--3--------3--------3-----|--2--------2---------------|
E|--------------------------|---------------------------|

E|--------------------------|---------------------------|
B|-----1--------1--------1--|-----1--------0h--1--------|
G|--------2--------2--------|--------0------------0-----|
D|--3--------3--------3-----|--2--------2---------------|
A|--------------------------|---------------------------|
E|--------------------------|---------------------------|

 
E|----------------------------|--------------------------|
B|-----3-----1-----0----------|-----3-----1-----0-----1--|
G|----------------------------|--------------------------|
D|----------------------------|--------------------------|
A|----------------------------|--------------------------|
E|--3-------------------------|--3-----------------------|


(continue usando a intro)

It's down to this / I've got to make my life make sense /
Can anyone tell what I've done / I miss the life /
I miss the colours of the world / Can anyone tell where I am / 

|------------------------------------------------------>
|------------------------------------------------------>
|-----------0-----0--------------0--------------------->
|-3-3-----0-----0------3-3-----0-----------------3-3--->
|-3-3---3-----2-----3--3-3---3-----2--2s3s2------3-3--->
|-1-1------------------1-1-----------------------1-1--->

>------------------------------------------------|
>------------------------------------------------|
>------------0-----0-----------------------------|
>----------0-----0-------3-3----------0----2--3--|
>--------3-----2-----3---3-3-----3------------3--|
>------------------------1-1------------------1--|


(volte c/ a intro)

   Away from the sun again /

(continue c/ a intro, preste atenção p cair certo)

I'm over this / I'm tired of livin' in the dark /
Can anyone see me down here / The feeling's gone /
There's nothing left to lift me up / Back into the world I know /

(refrão)
|------------------------------------------------------>
|------------------------------------------------------>
|-----------0-----0--------------0--------------------->
|-3-3-----0-----0------3-3-----0-----------------3-3--->
|-3-3---3-----2-----3--3-3---3-----2--2s3s2------3-3--->
|-1-1------------------1-1-----------------------1-1--->

>------------------------------------------------|
>------------------------------------------------|
>------------0-----0-----------------------------|
>----------0-----0-------3-3----------0----2--3--|
>--------3-----2-----3---3-3-----3------------3--|
>------------------------1-1------------------1--|


(volte c/ a intro)
 
It's down to this / I've got to make my life make sense /
And now I can' tell what I've done / And now again I've found myself so far down /
Away from the sun that shines to light the away for me / 

(refrão)
|------------------------------------------------------>
|------------------------------------------------------>
|-----------0-----0--------------0--------------------->
|-3-3-----0-----0------3-3-----0-----------------3-3--->
|-3-3---3-----2-----3--3-3---3-----2--2s3s2------3-3--->
|-1-1------------------1-1-----------------------1-1--->

>------------------------------------------------|
>------------------------------------------------|
>------------0-----0-----------------------------|
>----------0-----0-------3-3----------0----2--3--|
>--------3-----2-----3---3-3-----3------------3--|
>------------------------1-1------------------1--|

Dica : No refrão toque o powerchord de Am nota por nota , vai fik bm lok.
Naum esqça a distorção! Paz e amor à tds
Acordes para:

    0 comentários

      mostrar mais comentários

      Conseguiu tocar?

      6tocaram0ainda não

      Grave um vídeo tocando Away from the sun e mande pra gente!

      00:00 / 00:00
      outros vídeos desta música
      repetirqualidadeautomática
      Outro vídeos desta música
        00:00 / 00:00
        automática
        OK