Cifra Club

Aprenda

It's Not My Time

3 Doors Down

Cifra: Principal (violão e guitarra)
Já pensou em usar uma coleção de roupas do Cifra Club? Responda as perguntas abaixo e nos ajude nessa missão! →
tom: C
 Am                C                            F
----------------------|----------------------|-----------------------|
-0h--1-------------0--|--0----------0--------|-----------------------|
--------2-------------|-----0----------0-----|--0h--2-------------2--|
-----------2----------|--------2----------2--|---------3-------------|
-0------------0----3--|----------------------|------------3----------|
----------------------|----------------------|--1------------1----1--|

                         Am               C
----------------------|----------------------|-----------------------|
-------------1--------|--0h--1------------0--|------------0----------|
----------------2-----|---------2------------|----0----------0-------|
-----3-------------3--|------------2---------|-------2----------2----|
--------3-------------|--0------------0---3--|-----------------------|
----------------------|----------------------|-----------------------|

 F 
----------------------|
----------------------|
-0h--2-------------2--|
--------3-------------|
-----------3----------|
-1------------1----1--|


RIFF: GUITAR - "POWER CORDS"
===========================

  A5 G5 F5...       F5  C5...       C5  G5...           G5...
------------------------------------------------------------------------|
------------------------------------------------------------------------|
------------------------5---5-5-----5-----------------------------------|
--7--5--3---3-3-----3---5---5-5-----5---5---5-5-----5---5---5-5-----5---|
--7--5--3---3-3-----3---3---3-3-3-3-3---5---5-5-----5---5---5-5-----5---|
--5--3--1---1-1-1-1-1-------------------3---3-3-3-3-3---3---3-3-3-3-3---|

  A5 G5 F5...       F5  C5...       C5  G5...           G5...
------------------------------------------------------------------------|
------------------------------------------------------------------------|
------------------------5---5-5-----5-----------------------------------|
--7--5--3---3-3-----3---5---5-5-----5---5---5-5-----5---5---5-5-----5---|
--7--5--3---3-3-----3---3---3-3-3-3-3---5---5-5-----5---5---5-5-----5---|
--5--3--1---1-1-1-1-1-------------------3---3-3-3-3-3---3---3-3-3-3-3---|

  A5 G5 F5...
-------------|
-------------|
-------------|
--7--5--3~---|
--7--5--3~---|
--5--3--1~---|


VERSE: "ACOUSTIC GUITAR"
========================

 F
-----------------------|--------------------------|
-----------------------|-0h--1--------1p--0-------|
----------0h--2--------|--------2------------2----|
-------3---------3-----|-----------3------------3-|
----3---------------3--|--------------------------|
-1---------------------|--------------------------|

 Am
-------------------|-----------------------|
----------0--------|-1---------1p--0-------|
-------2-----2-----|----2-------------2----|
----2-----------2--|-------2-------------2-|
-0-----------------|-----------------------|
-------------------|-----------------------|

F                        
  Looking back at the beginning of this 
Am 
  And how life was 
F 
  Just you and me and love and all of our friends 
Am 
  Living life like an ocean 
(F5) 
  Now the currents slowly pulling me down 
(A5) 
  It's getting harder to breath 
(F5)
  It won't be too long and I'll be going under 
(A5)
  Can you save me from this 


||             A5 G5 F5
|| Cause It's not my time, 
||      F5 C5
|| I'm not going 
||                C5 G5
|| There's a fear in me,
|| It's not showing 
||         A5   G5   F5
|| This could be the end of me 
||   F5 C5        C5 G5
|| And everything I know 

             (SOLO) 
 Oh, I won't go 

SOLO:
=====

 F5                                     A5
-----12-----12------------12------12----------------------------------|
-15------15----13-12---12------13----12-10-----12--12-10---8/10-10----|
--------------------------------------------9----------------------9~-|
----------------------------------------------------------------------|
----------------------------------------------------------------------|
----------------------------------------------------------------------|

F 
  I look ahead to all the plans that we made 
Am 
  And the dreams that we had 
F 
  I'm in a world that tries to take them away 
Am 
  Oh, but I'm taking them back 
(F5)
  All this time I've just been to blind to understand 
(A5)
  What should matter to me 
(F5)
  My friend, this life we live is not what we have,
(A5)
  It's what we believe 


||             A5 G5 F5
|| Cause It's not my time, 
||      F5 C5
|| I'm not going 
||                C5 G5
|| There's a fear in me,
|| It's not showing 
||                    F5
|| This could be the end of me 
||    F5 C5        C5 G5
|| And everything I know 
||           A5 G5 F5
|| Oh, It's not my time 
||      F5 C5
|| I'm not going 
||                C5 G5
|| There's a fear in me,
|| Now I know that 
||          A5   G5   F5
|| This could be the end of me 
||   F5 C5        C5 G5
|| And everything I know 

                (SOLO)
  Oh, I won't goooo 
  I won't go

F5                C5               G5
  There might be more than you believe 
  There might be more than you believe
F5                C5               G5...
  There might be something you can't see 

SOLO: (2x)
=====

  F5
--------------------------------------------------|
--------------------------------------------------|
--------------------------------------------------|
--10-10-10-10-10-10-10-10-10-10-10-10-10-10-10-10-|
--------------------------------------------------|
--------------------------------------------------|

  C5
--------------------------------------|
--------------------------------------|
--------------------------------------|
--9-9-9-9-9-9-9-9-9-9-10-10-9-9-10-10-|
--------------------------------------|
--------------------------------------|

  G5
--------------------------------------------------|
--------------------------------------------------|
--------------------------------------------------|
--12-12-12-12-12-12-12-12-12-12-12-12-12-12-12-12-|
--------------------------------------------------|
--------------------------------------------------|

--------------------------------------------------|
--------------------------------------------------|
--------------------------------------------------|
--10-10-12-12-10-10-10-10-10-10-10-10-10-10-12-12-|
--------------------------------------------------|
--------------------------------------------------|

  F5
--------------------------------------------------|
--------------------------------------------------|
--------------------------------------------------|
--10-10-10-10-10-10-10-10-10-10-10-10-10-10-10-10-|
--------------------------------------------------|
--------------------------------------------------|

  C5
----------------------------------|
----------------------------------|
----------------------------------|
--9-9-9-9-9-9-9-9-9-9-9-9-9-9-9-9-|
----------------------------------|
----------------------------------|

  G5
--------------------------------------------------|
--------------------------------------------------|
--------------------------------------------------|
--12-12-12-12-12-10-10-12-10-10-12-10-10-12-12-12-|
--------------------------------------------------|
--------------------------------------------------|

--------------------------------------------------|
--------------------------------------------------|
--------------------------------------------------|
--12-12-12-12-12-12-12-12-12-12-12-12-12-12-12-12-|
--------------------------------------------------|
--------------------------------------------------|


||           A5 G5 F5
|| But It's not my time, 
||      F5 C5
|| I'm not going 
||                C5 G5
|| There's a fear in me,
|| It's not showing 
||                    F5
|| This could be the end of me 
||   F5 C5        C5 G5
|| And everything I know 
||           A5 G5 F5
|| Oh, It's not my time 
||      F5 C5
|| I'm not going 
||                C5 G5
|| There's a fear in me,
|| Now it's gonna show 
||                     F5
|| This could be the end of me 
||   F5 C5        C5 G5
|| And everything I know, Oh!!


F5                C5               G5
  There might be more than you believe 
  There might be more than you believe
F5                C5               G5...
  There might be something you can't see 

          F5
  I won't goooo! 
          A5              F5
  No I wooooon't gooooo down!
     A5
  Yeah!
Composição de Marcimus@hotmail.com
Colaboração e revisão:
  • Marcio Vieira
28.368 exibições
    • ½ Tom
    • A
    • Bb
    • B
    • C
    • Db
    • D
    • Eb
    • E
    • F
    • F#
    • G
    • Ab
  • Adicionar à lista

    0 comentários

    Ver todos os comentários

    Conseguiu tocar?

    6 Tocaram 0 Ainda não

    Grave um vídeo tocando It's Not My Time e nos envie!

    00:00 / 00:00
    Outros vídeos desta música
    Repetir Qualidade Automático
    Outros vídeos desta música
    00:00 / 00:00
    Automático

    Cifra Club Pro

    Aproveite o Cifra Club com benefícios exclusivos e sem anúncios
    Cifra Club Pro
    Aproveite o Cifra Club com benefícios exclusivos e sem anúncios
    OK